Запрещают песни Цоя, Агата Кристи, Наутилус Помпилиус, Зиверт
Отвечаем в отдельной теме

Red Hot Chili Peppers - Can't Stop, аккорды

Прокрутка
Тональность
Шрифт
100
Intro:
----------------------
----------------------
----------------------
----------------------
-5-7-5-7-5-7-5-7-5-7--
----------------------

Verse:
-----------------------------------------------------------------------------
-----------------------------------------------------------------------------
--------7--9--------7-9-------7-9-----7-9--------7--9------7-9-----7-9----79-
-----------------------------------------------------------------------------
---77---------777---------75------555-------5--------------------------------
---------------------------------------------7--------777------78------88----

Chorus:  
  Em         D      Bm       C                                                      
---------|-------|---7---|---8---
---8-----|---7---|---7---|---8---
---9-----|---7---|---7---|---9---
---9-----|---7---|---9---|---10--
---7-----|---5---|---9---|---10--
---------|-------|---7---|---8---

Bridge: Em D Bm C  

Chorus:  
  Em         D      Bm       C                                                      
---------|-------|---7---|---8---
---8-----|---7---|---7---|---8---
---9-----|---7---|---7---|---9---
---9-----|---7---|---9---|---10--
---7-----|---5---|---9---|---10--
---------|-------|---7---|---8---

-12------10-----7---------
----------------------8---
--------------------------
--------------------------
--------------------------
--------------------------
 
 

Видео