Зачем удалили Цоя?
Отвечаем в отдельной теме

Red Hot Chili Peppers - Fight Like A Brave, аккорды

Прокрутка
Тональность
Шрифт
100
Intro
ALbum:The Uplift Mofo Party Plan.... CHILLI'S RULE!!!
TABBED BY DAN RUDKIN OF STEYNING, WEST SUSSEX, ENGLAND.PEACE.
E||----------------------------------------------------------------------|
B||------------------------------------------------5~--------------------|
G||--------------------------------------5---------5~--------------------|
D||-7777777--7777777--7777777---777777-5-5-777777-5-7777777--------------|
A||-0000000--0000000--0000000---000000-0---000000-0-0000000--------------|
E||----------------------------------------------------------------------|
                  RRRROCK!!

E||----------------------------------------------------------------------|
B||---------5~--------------------5~-----------------5~------------------|
G||---------5~--------5-----------5~-----------------5~--------5---------|
D||-777777-5-777777-5-5--777777-5--7777777-7777777-5--777777-5-5---------|
A||-000000-0-000000-0----000000-0--0000000-0000000-0--000000-0-----------|
E||----------------------------------------------------------------------|


E||----------------------------------------------------------------------|
B||----------5~-----------------5~---------------------------------------|
G||----------5~-----------------5~---------5-----------------------------|
D||-777777-5---7777777-777777-5---777777-5-5-----------------------------|
A||-000000-0---0000000-000000-0---000000-0-------------------------------|
E||----------------------------------------------------------------------|

Chorus (0:40)

E||----------------------------------------------------------------------|
B||----------7~--------99~---------7~------------------------------------|
G||----------7~--------99~---------7~------------------------------------|
D||-999999-7---999999-----999999-7---9999999---7-5-(LET RING)------------|
A||-000000-0---000000-----000000-0---0000000---0-5-----------------------|
E||----------------------------------------------------------------------|
    FIGHT LIKE A BRAVE......

E||----------------------------------------------------------------------|
B||----------------------------------------------------------------------|
G||-----------------------------------------5^---------------------------|
D||-7777777--7777777--7777777--777777-5h6h7---7~---------------------------|
A||-0000000--0000000--0000000--000000------------------------------------|
E||----------------------------------------------------------------------|

THEN BASICALLY PLAY INTRO UNTILL YOU GET TO THE PART JUST BEFORE THE BASS INTERLUDE.
(1:43)
D||--77-55-77-55-(LET RING)---------|
A||--00-55-00-55--------------------|
E||---------------------------------|

BASS INTERLUDE

SOLO 1
(2:05)
E||--------------------------10^-10^--8-10-8-10-8-10-8-10-8-----10--------|
B||--------------7~------------------------------------------10^---10-8~--|
G||--------------7~-------------------------------------------------------|
D||-5/9999995/9-----X2---------------------------------------------------|
A||-0/000000/0----------------------------------------------------------|
E||-----------------------------------------------------------------------|

E||----------------------------------------------------------------------|
B||-10-8---12-12------------------12------------------12-12--------------|
G||--------12-12--10-12-10--------12--10-12-10--------12-12--------10----|
D||--------12-12-----------12-10--12-----------12-10--12-12--10-12----12-|
A||----------------------------------------------------------------------|
E||----------------------------------------------------------------------|

E||-----------------18^-18^-18^-18^*--18-17----|
B||-----------------------------------------20-|
G||--------12----------------------------------|
D||-10-----12----------------------------------|
A||----12--12----------------------------------|
E||---------9----------------------------------|

THEN HILLEL DOES SOMETHING CRAZY WICH I CAN'T TAB OUT...

PLAY INTRO BIT AGAIN WITH A LITTLE BIT OF ADLIBING.

0UTRO(SOLO 2)
(03:19)
E||---------------------------------------------------------------5-7-----|
B||-7-------------------5-------------------------------------5-7-----5-7-|
G||---5-7^--------5-6-7---7-5-----------------------5-7^(9)---------------|
D||-------7-5-6-7-------------7-5-4-5-4-5-4-----5-7--------7--------------|
A||-----------------------------------------5/7---------------------------|
E||-----------------------------------------------------------------------|

E||-5-7----5-7-----5-7-7^>-7^>-7^>-7^>-7^>-7^>5-----5-7-----5-7-7^>-------|
B||-----5-7----5-7------------------------------5-7-----5-7---------------|
G||-----------------------------------------------------------------------|
D||-----------------------------------------------------------------------|
A||-----------------------------------------------------------------------|
E||-----------------------------------------------------------------------|

G||-7-5--------------------|
D||-----77-55-7(LET RING)--|
A||-----00-00-0------------|

OK... I KNOW THE SOLO AND OUTRO AINT PERFECT BUT TRY AND IMPROVE ON IT. NOT THE
MOST DIFFICULT SONG TO PLAY BUT GREAT TO JAM ALONG TO. NEWAY, THIS IS MY FIRST
TAB SO PLEASE BE KIND. OH, AND ONE MORE THING, HILLEL SLOVAK ROCKS!!
ANY QUERIES, SUGESTIONS ETC. EMAIL AT DANRUDKIN@AOL.COM. PEACE.
 
 

Видео