Зачем удалили Цоя?
Отвечаем в отдельной теме

Red Hot Chili Peppers - Havana Affair, аккорды

Прокрутка
Тональность
Шрифт
100
Intro: 
 Dm          Bm         A
E---------1-------------------------------
B-------3----------3----------2-----------
G----2-----------4----------2------------- x2
D-0------------4----------2---------------
A-----------------------------------------
E-----------------------------------------

Verse:
 Dm          Bm          C           A
E--------1-----------2----------------------0---
B------3---3-------3---3--------1---------2---2-
G---2-----------4-------------0---0-----2-------
D-0-----------4-------------2---------2--------- x2
A-------------------------3---------------------
E-----------------------------------------------

 Dm          Bm         A
E---------1-------------------------------
B-------3----------3----------2-----------
G----2-----------4----------2------------- x2
D-0------------4----------2---------------
A-----------------------------------------
E-----------------------------------------

Verse:
 Dm          Bm          C           A
E--------1-----------2----------------------0---
B------3---3-------3---3--------1---------2---2-
G---2-----------4-------------0---0-----2-------
D-0-----------4-------------2---------2--------- x2
A-------------------------3---------------------
E-----------------------------------------------

Interlude:
E|-----------------------------------------------
B|-----------------------------------------------
G|----------------------------------------------- x4
D|-8/10-10-10-10-10--12--14----------------------
A|-8/10-10-10-10-10--12--14----------------------
E|-6/8--8--8--8--8---10--12----------------------
 
 

Видео