Запрещают песни Цоя, Агата Кристи, Наутилус Помпилиус, Зиверт
Отвечаем в отдельной теме

Red Hot Chili Peppers - Otherside (btab), аккорды

Прокрутка
Тональность
Шрифт
100
Intro: x4
G|--------|--------|--------|--------|
D|--------|--------|--------|--------|
A|--------|--------|-3-3-33-|--------|
E|-5-5-53-|-1-1-11-|--------|-3-3-33-|

Verse Part 1: x3
G|----------|------------------|
D|-77777777-|-1414141414141414-|
A|----------|------------------|
E|----------|------------------|

Verse Part 2: x4
G|----------|----------|----------|
D|----------|----------|----------|
A|----------|----------|----------|
E|-3~~~~~~~-|-5~~~~~~~-|-~~~~~~~~-|

Verse Part 3:
G|----------|----------|----------|----------|
D|----------|----------|----------|----------|
A|----------|----------|----------|----------|
E|-3~~~~~~~-|-5~~~~~~~-|-3~~~~~~~-|-5~~~~~~~-|

G|----------|----------|----------|----------|
D|----------|----------|----------|----------|
A|----------|----------|----------|----------|
E|-3~~~~~~~-|-~~~~~~~~-|-5-5-5-5--|-55555555-|

Chorus:
G|--------|--------|--------|--------|
D|--------|--------|--------|--------|
A|--------|--------|-3-3-33-|--------|
E|-5-5-53-|-1-1-11-|--------|-3-3-3--|

G|--------|--------|--------|--------|
D|--------|--------|--------|--------|
A|--------|--------|-3-3-33-|----32--|
E|-5-5-53-|-1-1-11-|--------|-03---3-|

G|--------|--------|--------|--------|
D|--------|--------|--------|---5----|
A|--------|--------|-3-3-33-|--------|
E|-5-5-53-|-1-1-11-|--------|-3---3--|

Verse Part 1: x3
G|----------|------------------|
D|-77777777-|-1414141414141414-|
A|----------|------------------|
E|----------|------------------|

Verse Part 4:
G|----------|----------|----------|----------|
D|----------|----------|----------|----------|
A|----------|----------|----------|----------|
E|-3~~~~~~~-|-5~~~~~~~-|-~~~~~~~~-|-~~~~~~~~-|

Verse Part 1: x3
G|----------|------------------|
D|-77777777-|-1414141414141414-|
A|----------|------------------|
E|----------|------------------|

Verse Part 3:
G|----------|----------|----------|----------|
D|----------|----------|----------|----------|
A|----------|----------|----------|----------|
E|-3~~~~~~~-|-5~~~~~~~-|-3~~~~~~~-|-5~~~~~~~-|

G|----------|----------|----------|----------|
D|----------|----------|----------|----------|
A|----------|----------|----------|----------|
E|-3~~~~~~~-|-~~~~~~~~-|-5-5-5-5--|-55555555-|

Chorus:
G|--------|--------|--------|--------|
D|--------|--------|--------|--------|
A|--------|--------|-3-3-33-|--------|
E|-5-5-53-|-1-1-11-|--------|-3-3-3--|

G|--------|--------|--------|--------|
D|--------|--------|--------|--------|
A|--------|--------|-3-3-33-|----32--|
E|-5-5-53-|-1-1-11-|--------|-03---3-|

G|--------|--------|--------|--------|
D|--------|--------|--------|---5----|
A|--------|--------|-3-3-33-|--------|
E|-5-5-53-|-1-1-11-|--------|-3---3--|

Bridge: x2
G|----------|----------|----------|----------|
D|----------|----------|----------|----------|
A|---7-57---|---7-57---|----------|---109----|
E|-0-----0--|-0-----0--|-05788788-|-10----10-|

G|----------|----------|----------|----------|
D|----------|----------|----------|----------|
A|---7-57---|---7-57---|----------|-109-7----|
E|-0-----0--|-0-----0--|-05788788-|-------10-|

Intro: 
G|--------|--------|--------|--------|
D|--------|--------|--------|--------|
A|--------|--------|-3-3-33-|--------|
E|-5-5-53-|-1-1-11-|--------|-3-3-33-|

Chorus:
G|--------|--------|--------|--------|
D|--------|--------|--------|--------|
A|--------|--------|-3-3-33-|--------|
E|-5-5-53-|-1-1-11-|--------|-3-3-3--|

G|--------|--------|--------|--------|
D|--------|--------|--------|--------|
A|--------|--------|-3-3-33-|----32--|
E|-5-5-53-|-1-1-11-|--------|-03---3-|

G|--------|--------|--------|--------|
D|--------|--------|--------|---5----|
A|--------|--------|-3-3-33-|--------|
E|-5-5-53-|-1-1-11-|--------|-3---3--|

Intro: 
G|--------|--------|--------|--------
D|--------|--------|--------|--------|
A|--------|--------|-3-3-33-|--------|
E|-5-5-53-|-1-1-11-|--------|-3-3-33-|

Outro:
G|--------|--------|--------|--------|
D|--------|--------|--------|--------|
A|--------|--------|-3-3-33-|--------|
E|-5-5-55-|-7-7-77-|--------|-3-3-33-|

Final Note:
G|--------|
D|--------|
A|--------|
E|-5~~~~~-|
 
 

Видео