Запрещают песни Цоя, Агата Кристи, Наутилус Помпилиус, Зиверт
Отвечаем в отдельной теме

Red Hot Chili Peppers - Porcelain, аккорды

Прокрутка
Тональность
Шрифт
100
Porcelain by Red Hot Chilli Peppers

E----------------------------------------------------------------
B----2-----------------------------------------------------------
G------2---------------------------------------------------------
D----------------------------------------------------------------
A----------------------------------------------------------------
E----------------------------------------------------------------

E------------0---------------------------------------------------
B----2-2-2-3-----------------------------------------------------
G--------------2-2-2-2-------------------------------------------
D----------------------------------------------------------------
A----------------------------------------------------------------
E----------------------------------------------------------------

E------------0---------------------------------------------------
B----2-2-2-3-----------------------------------------------------
G--------------2-2-2---------------------------------------------
D--------------------4-------------------------------------------
A----------------------------------------------------------------
E----------------------------------------------------------------

E----------------------------------------------------------------
B-------------------0-2------------------------------------------
G----2-----2------2-----2----------------------------------------
D------4-2---4-2-------------------------------------------------
A----------------------------------------------------------------
E----------------------------------------------------------------

E----2--2--2--4--5-----------------------------------------------
B-------------------5--2----0--2---------------------------------
G----------------------------------------------------------------
D----------------------------------------------------------------
A----------------------------------------------------------------
E----------------------------------------------------------------

E------------0---------------------------------------------------
B----2-2-2-3-----------------------------------------------------
G--------------2-2-2-2-------------------------------------------
D----------------------------------------------------------------
A----------------------------------------------------------------
E----------------------------------------------------------------

E----2--2--2--4--5--7--5--4--2--4—-5-----------------------------
B----------------------------------------------------------------
G----------------------------------------------------------------
D----------------------------------------------------------------
A----------------------------------------------------------------
E----------------------------------------------------------------

E----------------------------------------------------------------
B-------------------0-2------------------------------------------
G----2-----2------2-----2----------------------------------------
D------4-2---4-2-------------------------------------------------
A----------------------------------------------------------------
E----------------------------------------------------------------

E----------------------------------------------------------------
B----0-2----0------0-2------0------------------------------------
G--------2----2--------2-----------------------------------------
D----------------------------------------------------------------
A----------------------------------------------------------------
E----------------------------------------------------------------

Repeat from top.

My first tab. Hope it sounds right.
 
 

Видео