Запрещают песни Цоя, Агата Кристи, Наутилус Помпилиус, Зиверт
Отвечаем в отдельной теме

Red Hot Chili Peppers - Road Trippin', аккорды

Прокрутка
Тональность
Шрифт
100
Main Riff:
e|-----3----3----3------------------------|
B|-------0----0--------5----4-------------|
G|-----------------------0----------------|
D|-----2----2----2------------------------|
A|-------------------3------2-------------|
E|-0----------------------------3----2----|

e|-----3----3----5-3----------------------|
B|-------0----0--------5----4-------------|
G|-----------------------0----------------|
D|-----2----2----2------------------------|
A|-------------------3------2-------------|
E|-0----------------------------3----2----|
 
 

Видео