Зачем удалили Цоя?
Отвечаем в отдельной теме

Red Hot Chili Peppers - Subterranean Homesick Blues, аккорды

Прокрутка
Тональность
Шрифт
100
 THIS IS A CLASSIC FUNKY OLD SKOOL CHILIS WHICH I CAN ACTUALLY B F**KED 2 TAB
 
INTRO/VERSE

 ------15-x----x----x----x-------15---------------
 ------15-x-13-x-13-x-13-x-14----15----12/1414-12-
 ---------x-12-x-12-x-12-x-14----------12/1414-12-  
 ---------x----x----x----x----12----14------------
 -------------------------------------------------
 -------------------------------------------------

CHORUS

 --------15-151515-1515-
 --------14-141414-1414-
 --------14-141414-1414-
 ---7-7--14-141414-1414-
 ---7-7-----------------
 ---5-5-----------------

SOLO

 --------------------------------------------------
 --------------------------------16-13/1613-12-13-
 -15-14-12-8--7/87-5-7-15-14-12-------------------
 --------------------------------------------------
 --------------------------------------------------
 --------------------------------------------------