Зачем удалили Цоя?
Отвечаем в отдельной теме

Red Hot Chili Peppers - Subterrannean Homesick Blues, аккорды

Прокрутка
Тональность
Шрифт
100
#----------------------------------PLEASE NOTE--------------------------------#
#This file is the author's own work and represents their interpretation of the#
#song. You may only use this file for private study, scholarship, or research.#
#-----------------------------------------------------------------------------#
#-- File created with Instab - http://www.pconline.com/~smcarey/instab.html --#
#-----------------------------------------------------------------------------#

Author/Artist: Red Hot Chili Peppers
Title: Subterrannean Homesick Blues (Solo)
Album: The Uplift Mofo party Plan
Transcribed by: Greenie 12

Guitar Solo: I think it?s played with an enevelope filter, it
sonds good with a wah-wah.


e-||---------------------------|------------------|----------------------11----|
B-||----11----10----8----------|------------------|----11----10----8--8--------|
G-||-------------------8--8----|------------------|----------------------------|
D-||---------------------------|--10--8----8------|----------------------------|
A-||---------------------------|------------------|----------------------------|
E-||---------------------------|------------------|----------------------------|

e-||----8h11p8----8--11p8~~----|---------------------------|--------------------|
B-||-----------11--------------|----11----10----8----------|--------------------|
G-||---------------------------|-------------------8--8----|--------------------|
D-||---------------------------|---------------------------|----8--8----8h10----|
A-||---------------------------|---------------------------|--------------------|
E-||---------------------------|---------------------------|--------------------|

e-||----------------------11----|---------------------------|-|
B-||----11----10----8--8--------|----11p8-------------------|-|
G-||----------------------------|----------10--8------------|-|
D-||----------------------------|---------------------------|-|
A-||----------------------------|---------------------------|-|
E-||----------------------------|---------------------------|-|
 
 

Видео