Запрещают песни Цоя, Агата Кристи, Наутилус Помпилиус, Зиверт
Отвечаем в отдельной теме

Red Hot Chili Peppers - The Brothers Cup, аккорды

Прокрутка
Тональность
Шрифт
100
Subject: red hot chili peppers- The Brother's CuP

The Brothers Cup
By the Red Hot ChiLi PePPeRs
from the album Freaky Styley
and What Hits?!?

This one of the PePPeRs best songs.  Its played dropped D unless u have a 5
string.

intro, verse and most of the song.
g--------------------------|---------------------------|
d--------------------------|-------------------7--7-5--|
a-----5--3--2--3-3-0-------|---5-5--3-2----------------|
d--------------------------|---------------------------|

g-------------------------|----------------------------|
d-------------------------|--3-------5-3-6-5-3---------|
a----5--3--2--3-3-0-------|--------------------------5-|
d-------------------------|----------------------------|

chorus
g---------------------------------------------------|
d---------------------------------------------------|
a--5--3--1---------------5--3--1--3-3-1-------------|
d------------5--3--5--------------------------------|

ending-this part is slapped
g---------------------------------------------------|
d---------------------------------------------------|
a--------------------------------------55-7777------| 
 
 

Видео