Запрещают песни Цоя, Агата Кристи, Наутилус Помпилиус, Зиверт
Отвечаем в отдельной теме

Red Hot Chili Peppers - Parallel Universe, аккорды

Прокрутка
Тональность
Шрифт
100
Intro/Verse(все ноты приглушенные):
e|---------------------------------------------|
B|---------------------------------------------|
G|-----------------------------(9~~~~~~10~~~~~)|
D|2~~~~~~-------2~~~~3~~~~-----5~~~3~~~2~~~3~~~|
A|-------5~~~~~~----------3~~~~----------------|
E|---------------------------------------------|

Chorus: (heavy distortion)
  A5     G5     A5     F5
e|------------------------|
B|------------------------|
G|2-------------2---------|
D|2------5------2------3--|
A|0------5------0------3--|
E|-------3-------------1--|

Комментарий автора:

~ - тремолло
 
 

Видео