Зачем удалили Цоя?
Отвечаем в отдельной теме

Red Hot Chili Peppers - On Mercury, аккорды правильный подбор

Прокрутка
Тональность
Шрифт
100
Main Riff:
     Hm        G                 A         G F#G F#
E||--2-x-2-2-x-3-x-3-x-3-3-3-3-x-5-x-5-5-x-3-2-3-2-x-|
B||--3-x-3-3-x-3-x-3-x-3-3-3-3-x-5-x-5-5-x-3-2-3-2-x-|
G||--4-x-4-4-x-4-x-4-x-4-4-4-4-x-6-x-6-6-x-4-3-4-3-x-|
D||--4-x-4-4-x-5-x-5-x-5-5-5-5-x-7-x-7-7-x-5-4-5-4-x-|
A||--2---2-2---5---5---5-5-5-5---7---7-5---5-4-5-4---|
E||--------------------------------------------------|

Bridge:
     G         G A G A   Hm        G F
E||--3-x-3-3-x-3-5-3-5-x-2-x-2-2-x-3-0-0-0-0-0-0-x-|
B||--3-x-3-3-x-3-5-3-5-x-2-x-2-2-x-3-2-2-2-2-2-2-x-|
G||--4-x-4-4-x-4-6-4-6-x-3-x-3-3-x-4-3-3-3-3-3-3-x-|
D||--5-x-5-5-x-5-7-5-7-x-4-x-4-4-x-5-4-4-4-4-4-4-x-|
A||--5---5-5---5-7-5-7---4---4-4---5-4-4-4-4-4-4---|
E||------------------------------------------------|

Chorus:
     Hm              D               Em              G
E||--2-x-2-2-2-2-x-x-5-x-5-5-5-5-x-x-7-x-7-7-7-7-x-x-3-x-3-3-3-3-x-x-|
B||--3-x-3-3-3-3-x-x-7-x-7-7-7-7-x-x-8-x-8-8-8-8-x-x-3-x-3-3-3-3-x-x-|
G||--4-x-4-4-4-4-x-x-7-x-7-7-7-7-x-x-9-x-9-9-9-9-x-x-4-x-4-4-4-4-x-x-|
D||--4-x-4-4-4-4-x-x-7-x-7-7-7-7-x-x-9-x-9-9-9-9-x-x-5-x-5-5-5-5-x-x-|
A||--2---2-2-2-2-----5---5-5-5-5-----7---7-7-7-7-----5---5-5-5-5-----|
E||------------------------------------------------------------------|

Main Riff.
I've got myself
In a masochistic hold
Why don't you let go
Shake it off
Just to redirect my flow
Come on let's go

Sit up straight
I'm on a double date
I've got to find my way
Into the light, heavy, middle weight
We don't stop rock around the clock
Motor mouthing off
In front of every other road block

Bridge.
Come again and tell me
What you're going thru
Like a girl who only knew
Her child was due

Chorus.
Memories of everything
Of lemon trees on mercury
Come to me with remedies
From five or six of seven seas
You always took me with a smile
When I was down
Memories of everything
That blew thru

Main Riff.
Looking up into
A reverse vertigo
What an undertow
Give it up
Another stubborn scorpio
Come on, let's go

Sit up straight
I'm on a double date
I've got to find my way
Into the light, heavy, middle weight
We don't stop rock around the clock
Motor mouthing off
In front of every other road block

Bridge.
Come again and tell me
What you're going thru
Like a girl who only knew
Her child was due
To the moon she gave
Another good review
Turn around and look at me
 
 
Свернуть Распечатать

Аппликатуры аккордов

Аккорд HmАккорд GАккорд AАккорд F#GАккорд F#Аккорд FАккорд DАккорд Em
помощники
4,088 0 30.08.2011

Видео