Запрещают песни Цоя, Агата Кристи, Наутилус Помпилиус, Зиверт
Отвечаем в отдельной теме

Red Hot Chili Peppers - Can, аккорды правильный подбор

Прокрутка
Тональность
Шрифт
100
Riff A:
e|-------------------------------------------------------------|
B|-------------------------------------------------------------|
G|------7--9---------7--9------------7--9---------7--9---------|
D|--------------------------------0--------0-0-0--------0-0-0--|
A|-7-7--------7-7-7--------7-7-7-------------------------------|
E|-------------------------------------------------------------|                                                                              

e|-------------------------------------------------------------|
B|-------------------------------------------------------------|
G|----7--9---------7--9------------7--9--------7--9------------|
D|-------------------------------------------------------------| x4
A|-------------------------------------------------------------|
E|-7--------7-7-7--------7-7-7--8-------8-8-8--------8-8-8-----|
                                                                          
Riff B:
e|-------------------------------------------------------------|
B|-------------------------------------------------------------|
G|------7--9---------7--9------------7--9---------7--9---------|
D|--------------------------------0--------0-0-0--------0-0-0--|
A|-7-7--------7-7-7--------7-7-7-------------------------------|
E|-------------------------------------------------------------|
                                                                              
e|--------------------------------7--7--7--7---|
B|--------------------------------8--8--8--8---|
G|----7--9---------7--9-----------9--9--9--9---|
D|---------------------------------------------|
A|---------------------------------------------|
E|-7--------7-7-7--------7-7-7-----------------|

Intro: Em D Bm C

Em
Can't stop addicted to the shin dig 
D
Cop top he says I'm gonna win big 
Bm
Choose not a life of imitation 
C
Distant cousin to the reservation 

Em
Defunkt the pistol that you pay for 
D
This punk the feeling that you stay for 
Bm
In time I want to be your best friend 
C
Eastside love is living on the westend 

Em
Knock out but boy you better come to 
D
Don't die you know the truth is some do 
Bm
Go write your message on the pavement 
C
Burnin' so bright I wonder what the wave meant 

Em
White heat is screaming in the jungle 
D
Complete the motion if you stumble 
Bm
Go ask the dust for any answers 
C
Come back strong with 50 belly dancers 

Припев:
G   D
The world I love The tears I drop 
   Bm             C
To be part of The wave can't stop 
G           D       Bm      C
Ever wonder if it's all for you 
G   D
The world I love 
   Bm           C
The trains I hop 
G   D
To be part of 
   Bm           C
The wave cant stop 
G           D       Bm      C
Come and tell me when it's time to 

Em
Sweetheart is bleeding in the snowcone 
D
So smart she's leading me to ozone 
Bm
Music the great communicator 
C
Use two sticks to make it in the nature 

Em
I'll get you into penetration 
D
The gender of a generation 
Bm
The birth of every other nation 
C
Worth your weight the gold of meditation 

Em
This chapter's going to be a close one 
D
Smoke rings I know your going to blow one 
Bm
All on a spaceship persevering 
C
Use my hands for everything but steering 

Em
Can't stop the spirits when they need you 
D
Mop tops are happy when they feed you 
Bm
J. Butterfly is in the treetop 
C
Birds that blow the meaning into bebop 

Припев:
G   D
The world I love The tears I drop 
   Bm             C
To be part of The wave can't stop 
G           D       Bm      C
Ever wonder if it's all for you 
G   D
The world I love 
   Bm           C
The trains I hop 
G   D
To be part of 
   Bm           C
The wave cant stop 
G           D       Bm      C
Come and tell me when it's time to 

Em                D
Wait a minute I'm passing out 
        Bm            C
Win or lose just like you 
Em             D
Far more shocking 
        Bm            C
Than anything i ever knew 
Em           D
How about you 
        Bm    C
10 more reasons 
Em                D
Why i need somebody new just like you 
        Bm            C
Far more shocking than anything I ever knew 
C
Right on cue 

Em
Can't stop addicted to the shin dig 
D
Cop top he says I'm gonna win big 
Bm
Choose not a life of imitation 
C
Distant cousin to the reservation 

Em
Defunkt the pistol that you pay for 
D
This punk the feeling that you stay for 
Bm
In time I want to be your best friend 
C
Eastside love is living on the westend 

Em
Knock out but boy you better come to 
D
Don't die you know the truth is some do 
Bm
Go write your message on the pavement 
C
Burnin' so bright I wonder what the wave meant 

Em
Kick start the golden generator 
D
Sweet talk but don't intimidate her 
Bm
Can't stop the gods from engineering 
C
Feel no need for any interfering 

Em
Your image in the dictionary 
D
This life is more than ordinary 
Bm
Can I get 2 maybe even 3 of these 
C
Come from space 
Em
To teach you of the pliedes 
D
Can't stop the spirits when they need you 
Bm                           C
This life is more than just a read thru

Комментарий автора:

Вступление:
G-----------------------|
D-----------------------|
A-----------------------|
E--777777777777777777777
   N....................

Verse:
Repeat x
G-----7-9-------7-9---------7-9-------7-9------|
D----------------------------------------------|
A-7-7-----7-7-7-----7-7-7-5-----5-5-5----------|
E----------------------------------------------|
  S S P P S S S P P S S S S P P S S S P P

G---------4-4-------4-4---------5-5-------5-5--|
D----------------------------------------------|
A-5-5-5-2-----2-2-2-----2-2-2-3-----3-3-3------|
E----------------------------------------------|
  S S S S P P S S S P P S S S S P P S S S P P

Chorus:
G---------------------------------------------------------9-7----|
D----7-9-10-12--9-9-7-9-10--12-----7-9-10-12--9--9-7-9-10-----9--|
A-10----------------------------10-------------------------------|
E----------------------------------------------------------------|
  N..............................................................

G----------------12-------------------------|
D----7-9-10-12-9----9-10-10-12----7-9-10-12-|
A-10---------------------------10-----------|
E-------------------------------------------|
  N.........................................

Pre Solo:
G-----9-----14-------------------7-------|
D--------------12-0-------9--------10----|
A-7-7---7--------------------------------|
E---------------------7-7---7---------8--|
  N......................................

G-----9-----14-------------------7----------------|
D--------------12-0-0------9-------10---10--------|
A-7-7---7-----------------------------------------|
E----------------------7-7---7--------8----8--10--|
  N...............................................

G-----9-----14-------------------7----------------|
D--------------12-0-0------9-------10----5h7------|
A-7-7---7------------------------------------5h7--|
E----------------------7-7---7--------8-----------|
  N...............................................

G-----9-----14--------------------7---------------|
D--------------12-0-0------9--------10------------|
A-7-7---7-----------------------------------------|
E----------------------7-7---7---------8-8--------|
  N...............................................
 
 
Свернуть Распечатать

Аппликатуры аккордов

Аккорд EmАккорд DАккорд BmАккорд CАккорд G
помощники
35,467 38 09.09.2011

Видео