Запрещают песни Цоя, Агата Кристи, Наутилус Помпилиус, Зиверт
Отвечаем в отдельной теме

Red Hot Chili Peppers - Subterrannean Homesick Blues, аккорды

Прокрутка
Тональность
Шрифт
100
Intro:
G]------------------------------------------------------------------]
D]------------------------------------------------------------------]
A]---------4-5--4-5-4------7----5----------------4-5--4-5-----------]
E]---0-----------------0-----------6--3---2---0------------0--3--2--]

G]------------------------------------------------------------------]
D]------------------------------------------------------------------]
A]---------4-5--4-5-4------7----5----------------4-5--4-5-----------]
E]---0-----------------0-----------6--3---2---0------------0--3--2--]

G]------------------------------------------------------------------]
D]------------------------------------------------------------------]
A]---------4-5--4-5-4------7----5----------------4-5--4-5-----------]
E]---0-----------------0-----------6--3---2---0------------0--3--2--]

G]------------------------------------------------------------------]
D]------------------------------------------------------------------]
A]---------4-5--4-5-4------7----5----------------4-5--4-5-----------]
E]---0-----------------0-----------6--3---2---0------------0--3--2--]

G]------------------------------------------------------------------]
D]------------------------------------------------------------------]
A]---------4-5--4-5-4------7----5----------------4-5--4-5-----------]
E]---0-----------------0-----------6--3---2---0------------0--3--2--]

G]--------------------------------------]
D]--------------------------------------]
A]---------4-5--4-5-4------7----5-------]
E]---0-----------------0-----------6--3-]

look i cant find my cd but i know u just keep hitting the A
in the amount times needed its not hard
Chorus:
G]------------------------------------------------------------------]
D]------------------------------------------------------------------]
A]------------------------------------------------------------------]
E]---17----5-----5---5---5-----5---5---5---5---5----5----5--5----5-]

u just play the amount of times there
its not hard to imterperate

Bridge:
G]------------------------------------------------------------------]
D]------------------------------------------------------------------]
A]------------------------------------------------------------------]
E]--8---8--8-8-8--8--8-8--8---8--8-8-8-8----8---8----8--------------]

again just play the notes when heard

Interlude:(killlen em)

G]-----------------------------------------------------------------]
D]-----------------------------------------------------------------]
A]-----------------------------------------------------------------]
E]--0-2--2-------0-2--2-----0--2--2------0--2--2-------------------]

G]-----------------------------------------------------------------]
D]-----------------------------------------------------------------]
A]-----------------------------------------------------------------]
E]--0--2-0-2/12--0--2---0--2/14--0-2---0-2/1210/16---0-2-0-2/12---]

G]-----------------------------------------------------------------]
D]-----------------------------------------------------------------]
A]-----------------------------------------------------------------]
E]--0--2-0-2/12--0--2---0--2/14--0-2---0-2/1210/16---0-2-0-2/20 -]
 
 

Видео