Запрещают песни Цоя, Агата Кристи, Наутилус Помпилиус, Зиверт
Отвечаем в отдельной теме

Red Hot Chili Peppers - Blackeyed Blonde, аккорды

Прокрутка
Тональность
Шрифт
100
  Verse:             Chorus:
E|---------------------|-------------------|-------------------|
B|----6-6-x-6-6-x-6----|--)----------------|-------------------|
G|-@--5-5-x-5-5-x-5--@-|-5---x-----x-------|-x-x-------x-x-x-x-|
D|-@--4-4-x-4-4-x-4--@-|-----x--5--x--7~~~-|-x-x--5-5--x-x-x-x-|
A|----5-5-x-5-5-x-5----|-------------------|-------------------|
E|---------------------|-------------------|-------------------|
 
E|-----------|------------|----------------|-------------------|
B|-----------|----------)-|--)-------------|-------------------|
G|-----------|---------7--|-5--x----x------|-x-x-------x-x-x-x-|
D|-5-5---5h7-|-5-5-5-5----|----x--5-x--7~~-|-x-x--5-5--x-x-x-x-|
A|-----7-----|------------|----------------|-------------------|
E|-----------|------------|----------------|-------------------|

                             Verse 2:
E|-------------|---------|----------|--------------------------|
B|-------------|---------|----------|-----6---6--x-6-6--x-6----|
G|-------------|---------|----------|-@---5---5--x-5-5--x-5--@-|
D|-5-5-----5h7-|-5-5-5-5-|----------|-@---4---4--x-4-4--x-4--@-|
A|------7------|---------|-3----4---|-----5---5--x-5-5--x-5----|
E|-------------|---------|----------|--------------------------|

Chorus 2:

E|-----------------|------------------|-----------|------------|
B|--)--------------|------------------|-----------|----------)-|
G|-5---x-----x-----|-x-x------x-x-x-x-|-----------|---------7--|
D|-----x--5--x--7~-|-x-x--5-5-x-x-x-x-|-5-5---5h7-|-5-5-5-5----|
A|-----------------|------------------|-----7-----|------------|
E|-----------------|------------------|-----------|------------|

E|------------------|-------------|---------------|------------|
B|-)----------------|-------------|---------------|------------|
G|5---x-----x-------|-------------|---------------|------------|
D|----x--5--x--7~~~-|-(7)--(7)----|--5-5-----5h7--|----5-5-5-5-|
A|------------------|-------------|-------7-------|------------|
E|------------------|-------------|---------------|------------|

Interlude 1: With shouting, Bass plays but Guitar is quiet until
the last bar, when this is played:

E|----------------------|
B|----6--6--6---6---6-6-|
G|----5--5--5---5---5-5-|
D|----4--4--4---4---4-4-|
A|----5--5--5---5---5-5-|
E|----------------------|

Guitar Solo: A strange sound and a strange solo

Interlude 2:

E|-------------------|-----------|---------------|-------------|
B|-------------------|-------)---|---------------|-----------)-|
G|-------------------|-x-x--8----|---------------|---------10--|
D|-8-(8)-(8)-(8)-(8)-|-x-x-----8-|-8-8------8h10-|-8-8-8-8-----|
A|-8-(8)-(8)-(8)-(8)-|-----------|------10-------|-------------|
E|-6-(6)-(6)-(6)-(6)-|-----------|---------------|-------------|

E|-----------------|-----------------------------|-------------|
B|-----------------|------)----------------------|-------------|
G|-----------------|-x-x-8---x------8----8-10-8~-|-------------|
D|-8-(8)(8)(8)-(8)-|-x-x---8-x-8h10---10---------|-8-8----8h10-|
A|-8-(8)(8)(8)-(8)-|-----------------------------|-----10------|
E|-6-(6)(6)(6)-(6)-|-----------------------------|-------------|

E|------------------|
B|----------------)-|
G|--------------10--|
D|----8-8-8-8-------|
A|------------------|
E|------------------|

Then play the 3rd verse like the first and end like this:

E|---------------|
B|----6-6----6-6-|
G|----5-5----5-5-|
D|----4-4----4-4-|
A|----5-5----5-5-|
E|---------------|

This is the bass main riff.

G|------x----------7--5----7--5-|------x----------7--5-----4-5-|
D|------------------------------|------------------------------|
A|-3h5-----3h5--x-------x-------|-3h5-----3h5--x--------x------|
E|------------------------------|------------------------------|
 
 

Видео