Richie Lionel - How Long, аккорды новинка

Прокрутка
Тональность
Шрифт
100
Intro:
        Am                            Fmaj7-5                G
e|-----------0---------0--|-----------0--------|---------------|
B|-----------------1------|-----------------3--|--3---------3--|
G|--------2-----2---------|--------2-----------|---------0-----|
D|-----2------------------|-----2--------------|------0--------|
A|--0---------------------|--------------------|---------------|
E|------------------------|--1-----------------|--3------------|

  Am7       Asus2          
e|---------------|  
B|--1---0--------|
G|--0---0---2p0--|    
D|---------------|
A|---------------|
E|---------------|

Комментарий автора:

Играем по Табам!

p*  -  Сдёргивание пальца левой руки с прижатой звучащей струны

Этот проигрыш играется на протяжении всей песни! 
Фанаты должны оценить :)
 
 
Свернуть Распечатать

Видео