Rock-H - Білий динь, аккорды

Прокрутка
Тональность
Шрифт
100
Вступ:
   Em                            C                             Am                             B7
1)-3----3----3---3----3----3---|-3----3----3---3----3----3---|-2----2----2---2----2----2---|----------------
2)---5----5----5---5----5----5-|---5----5----5---5----5----5-|---1----1----1---1----1----1-|--4----4----4---
3)-----4----4--------4----4----|-----5----5--------5----5----|-----2----2--------2----2----|----2----2----2-
4)-----------------------------|-----------------------------|-----------------------------|------4----4----

1)-----------2---
2)-4----5--------
3)---2----2----2-
4)-----4----4----

Куплет=Вступ x2:
Em       
Динь, динь, білий динь
   C
Вставай, дівко, клади вгинь
Am
Бо вже мати рано встала
  B7
Красний образ повтирала
Em
Динь, динь, білий динь
   C
Вставай, дівко, клади вгинь
Am
Дівка встала, вгинь наклала
 B7
Неє того, що чекала

Приспів:
Em       
Динь, динь, білий динь
   C
Вставай, дівко, клади вгинь
 Am
Збирай тріски по дворови
  B7
Вари їсти легіньові
Em
Динь, динь, білий динь
   C
Вставай, дівко, клади вгинь
Am
Дівка встала, вгня наклала
 B7
Неє того, що чекала

Куплет:
Em       
Динь, динь, білий динь.
   C
Вставай, дівко, клади вгинь.
 Am
Клади тріски, най ся курить,
B7
Най ся ніко мнов не журить.

Приспів:
Em       
Динь, динь, білий динь
   C
Вставай, дівко, клади вгинь
 Am
Збирай тріски по дворови
  B7
Вари їсти легіньові
Em
Динь, динь, білий динь
   C
Вставай, дівко, клади вгинь
Am
Дівка встала, вгня наклала
 B7
Неє того, що чекала

Програш: Em  D  C  Am / B7

Em                
Най-най-на-на-най най-най-на-на-на-най
 D
Най-най-на-на-най най-най-на-на-на-най

C  Am / B7

 Am
Збирай тріски по дворови
 Am   /   D
Вари їсти легіньові
 Am
Клади тріски, най ся курить,
B7
Най ся ніко мнов не журить.

Приспів=Вступ:
Em       
Динь, динь, білий динь
   C
Вставай, дівко, клади вгинь
Am
Дівка встала, вгня наклала
 B7
Легіньові їсти дала

Приспів:
Em       
Динь, динь, білий динь
   C
Вставай, дівко, клади вгинь
Am
Дівка встала, вгня наклала
 B7
Легіньові їсти дала
Am
Дівка встала, вгня наклала
 B7
Легіньові їсти дала

Кода:
Em / D  C 
Гей!
Am       Em / D 
Їсти дала,гой.
 C
Динь, динь, білий динь
Am       Em
Їсти дала, гой...

Комментарий автора:

Бій Куплет: V v ^ ^ v ^. Бій Приспів: V v v V v v V v.
 
 
Свернуть Распечатать

Видео