Roxette - Sleeping In My Car, аккорды

Прокрутка
Тональность
Шрифт
100
Figure 1:
e------------------------------------------|
B------------------------------------------|
G------------------------------------------| 
D----------7---9--7--------------7--9-7----| x2
A---7---9----9-------7------7-9---------7--|
E-9---9-------------------9----------------|

then:
e-----------|
B-----------|
G-----------|
D-----------|
A---7---9---|
E-9---9-----|

F#m      
I'll tell you what I've done
E
I'll tell you what I'll do
     B                D(V)        
Been driving all night just to get close to you
F#m                        E
Baby babe - I'm moving so fast
                  B D(V)
You'd better come on

F#m
The moon is alright
E
The freeway's heading South
   B
My Heart is going Boom!
D(V)
There's a strange taste in my mouth
Fm#                          E
Baby babe - I'm moving real fast
               B D(V)
So try to hold on
           B D(V)
Try to hold on!
   
               F#           C#m
Sleeping in my car - I will undress you
               D#m           B
Sleeping in my car - I will caress you
               F#              C#     B   C#
Staying in the back seat of my car making up

Figure 1:
e------------------------------------------|
B------------------------------------------|
G------------------------------------------| 
D----------7---9--7--------------7--9-7----| x2
A---7---9----9-------7------7-9---------7--|
E-9---9-------------------9----------------|

then:
e-----------|
B-----------|
G-----------|
D-----------|
A---7---9---|
E-9---9-----|

   F#m
So come out tonight
E
I'll take you for a ride
B
This steamy ol' wagon
D(V)
The radio is getting wild
F#                        E
Baby babe we're moving so fast
              B D(V)
I try to hang on
           B D(V)
Try to hang on!


               F#           C#m
Sleeping in my car - I will undress you
               D#m           B
Sleeping in my car - I will caress you
               F#              C#     B   C#
Staying in the back seat of my car making love, oh yea!

               F#           C#m
Sleeping in my car - I will posess you
               D#m           B
Sleeping in my car - certainly bless you
               F#              C#     B   C#
Laying in the back seat of my car making up

    No guitar over this bit:
The night is so pretty and so young
The night is so pretty and so young
So very young...

    then:
e-------------------------------------------
B-------------------------------------------
G-------------------------------------------
D----------7---9--7--------------7--9-7-----
A---7---9----9-------7------7-9---------7---
E-9---9-------------------9-----------------

e------------------------------------------|
B------------------------------------------|
G------------------------------------------|
D----------7---9--7---------------7-6------|
A---7---9----9-------7------7-9-------9----|
E-9---9-------------------9----------------|

               F#           C#m
Sleeping in my car - I will undress you
               D#m           B
Sleeping in my car - I will caress you
               F#              C#     B   C#
Staying in the back seat of my car making love to you

               F#           C#m
Sleeping in my car - I will posess you
               D#m           B
Sleeping in my car - certainly bless you
               F#              C#     B   C#
Laying in the back seat of my car making up

F#           C#m
I will undress you
F#           C#m
I will undress you
 
 

Видео