Rudy Mancuso - Magic (ft Maia Mitchell), аккорды новинка

Прокрутка
Тональность
Шрифт
100
Intro:
  F                         Am
e|-------------------------|-------------------------|
B|---1-1---1-1---1-1---1-1-|---5-5---5-5---5-5---5-5-|
G|---2-2---2-2---2-2---2-2-|---5-5---5-5---5-5---5-5-|
D|---3-3---3-3---3-3---3-3-|---7-7---7-7---7-7---7-7-|
A|---3-3---3-3---3-3---3-3-|---7-7---7-7---7-7---7-7-|
E|-1-----1-----1-----1-----|-5-----5-----5-----5-----|

Verse 1: [Rudy Mancuso]
        F
When I run from the blame
F
Hide from the pain
                Am
I feel it in my body
       F
When I just can't let go
F
Fear starts to show
              Am
I feel it in my body

Chorus: [Rudy Mancuso]
             F
Oh I feel this Magic
             Am
And it's deep inside
                  F
Cause I believe in Magic
               Am
When I see your eyes
             F        Am
You know that it's Magic
                  F   Am
Cause I believe in Magic

Verse 2: [Maia Mitchell]
           F
When I'm numb from the game
F
Tired of the blame
               Am
I feel it in my body
         F
When I just can't say no
F
Fear starts to grow
               Am
I feel it in my body

Chorus: [Rudy Mancuso & Maia Mitchell]
           F
Oh I feel this Magic
             Am
And it's deep inside
                  F
Cause I believe in Magic
               Am
When I see your eyes
N/С              F   Am
You know that it's Magic
                  F    Am
Cause I believe in Magic

Instrumental: F Am F Am F Am F Am

  F                          Am
e|--------------------------|--------------------------|
B|--------------------------|--------------------------|
G|----2-2---2-2---2-2---2-2-|----5-5---5-5---5-5---5-5-|
D|---3-3---3-3---3-3---3-3--|---7-7---7-7---7-7---7-7--|
A|--3-----3-----3-----3-----|--7-----7-----7-----7-----|
E|-1-----1-----1-----1------|-5-----5-----5-----5------|

  F                          Am
e|--------------------------|--------------------------|
B|--------------------------|--------------------------|
G|----2-2---2-2---2-2---2-2-|----5-5---5-5---5-5---5-5-|
D|---3-3---3-3---3-3---3-3--|---7-7---7-7---7-7---7-7--|
A|--3-----3-----3-----3-----|--7-----7-----7-----7-----|
E|-1-----1-----1-----1------|-5-----5-----5-----5------|
                              I feel it in my body
  F
e|-12-10-12-10-12-10-12-10-|-12-10-12-10-12-10-12-10-|
B|-------------------------|-------------------------|
G|-------------------------|-------------------------|
D|-------------------------|-------------------------|
A|-------------------------|-------------------------|
E|-------------------------|-------------------------|

  Am
e|-10-8--10-8--10-8--10-8--|-10-8--10-8--10-8--10-8--|
B|-------------------------|-------------------------|
G|-------------------------|-------------------------|
D|-------------------------|-------------------------|
A|-------------------------|-------------------------|
E|-------------------------|-------------------------|

  F
e|-12-10-12-10-12-10-12-10-|-12-10-12-10-12-10-12-10-|
B|-------------------------|-------------------------|
G|-------------------------|-------------------------|
D|-------------------------|-------------------------|
A|-------------------------|-------------------------|
E|-------------------------|-------------------------|

  Am
e|-10-8--10-8--10-8--10-8--|-10-8--10-8--10-8--10-8--|
B|-------------------------|-------------------------|
G|-------------------------|-------------------------|
D|-------------------------|-------------------------|
A|-------------------------|-------------------------|
E|-------------------------|-------------------------|

Outro: [Rudy Mancuso & Maia Mitchell]
           F
Oh I feel this Magic
             Am
And it's deep inside
                  F
Cause I believe in Magic
               Am
When I see your eyes
 
 
Свернуть Распечатать

Видео