Руки Вверх - Половинка любви, аккорды

Прокрутка
Тональность
Шрифт
100
Припев

  Gm          Eb          F
  Ты просила его: "Только не уходи"
  Gm            Eb      F
  И дрожала от слез, умоляла: "Прости".
  Gm               Eb     F
  Только он давно ушел, зови, не зови
  Gm         Eb      F
  И с собою унес половинку любви.

Проигрыш x8
Gm Eb F

e|---------------|-----1-|-----3-|
B|-----3---3---3-|-------|-1-1---|
G|-0-0---0---0---|-3-3---|-------|
D|---------------|-------|-------|
A|---------------|-------|-------|
E|---------------|-------|-------|

Gm             Eb
Вещи он собрал, уходит,
 F            Dm
Двери за собой закроет,
Gm              Eb
Не смотри в окно напрасно
Bb          Dm
И не жди его, все ясно.
Gm           Eb
Он давно ушел и ночи
 F                 Dm
Стали вдруг длинней, а дни короче,
  Gm            Eb
В комнате пустой скучаешь,
Bb            Dm
Как его вернуть не знаешь.

Припев

  Gm          Eb          F
  Ты просила его: "Только не уходи"
  Gm            Eb      F
  И дрожала от слез, умоляла: "Прости".
  Gm               Eb     F
  Только он давно ушел, зови, не зови
  Gm         Eb      F
  И с собою унес половинку любви.

Проигрыш x4
Gm Eb F

e|---------------|-----1-|-----3-|
B|-----3---3---3-|-------|-1-1---|
G|-0-0---0---0---|-3-3---|-------|
D|---------------|-------|-------|
A|---------------|-------|-------|
E|---------------|-------|-------|

Gm             Eb
Думала, простит, не бросит,
  F             Dm
С кем гуляешь ты не спросит
Gm           Eb
И ругать тебя не станет,
Bb                Dm
Если ты придешь домой с друзьями.
Gm           Eb
Сердце ты его разбила,
F                   Dm
Ты играла с ним, но не любила,
Gm              Eb
Не смотри в окно напрасно
Bb          Dm
И не жди его, все ясно.

Припев x2

  Gm          Eb          F
  Ты просила его: "Только не уходи"
  Gm            Eb      F
  И дрожала от слез, умоляла: "Прости".
  Gm               Eb     F
  Только он давно ушел, зови, не зови
  Gm         Eb      F
  И с собою унес половинку любви.

Проигрыш x8
Gm Eb F

e|---------------|-----1-|-----3-|
B|-----3---3---3-|-------|-1-1---|
G|-0-0---0---0---|-3-3---|-------|
D|---------------|-------|-------|
A|---------------|-------|-------|
E|---------------|-------|-------|

Припев x2

  Gm          Eb          F
  Ты просила его: "Только не уходи"
  Gm            Eb      F
  И дрожала от слез, умоляла: "Прости".
  Gm               Eb     F
  Только он давно ушел, зови, не зови
  Gm         Eb      F
  И с собою унес половинку любви.
 
 
Свернуть Распечатать

Аппликатуры аккордов

Аккорд GmАккорд EbАккорд FАккорд DmАккорд Bb
ivan30ivan30
автор подбора аккордов
1,420 1 25.04.2021

Видео