Save Ferris - Lies, аккорды

Прокрутка
Тональность
Шрифт
100
(Bass)

Main Riff } x9
[G----------------------------
D----------------------------
A--------2-4-5---55-4-2------
E2---2-5----------------5-4-2

G--------------------------
D--------------------------
A-------2-4-5---55-4-2-----
E---2-5----------------5---]

1st Riff } x1
[G----------------------------
D----------------------------
A--------------5-5--55-4-4--4
E2-2--2-0-0--0---------------

G------------------------------
D------------------------------
A---------------5-5--55--7-7/16
E-2-2--2-0-0--0----------------]

2nd Riff } x1
[G----------------------------
D----------------------------
A--------------5-5--55-4-4--4
E2-2--2-0-0--0---------------

G------------------------------
D---------------------------2-2
A--------------2-22-4-4-5-5----
E2-2--2-0-0--0-----------------]

Repeat Main Riff x5, then 2nd Riff x1

Riff 3 } x1
[G----------------------------
D----------------------------
A--------2-4-5---55-4-2------
E2---2-5----------------5-4-2

G-----------------------
D-----------------------
A-------2-4-5---55-4-2--
E---2-5----------------5

G----------------------------
D----------------------------
A--------2-4-5----------14/19
E2---2-5---------------------]

...when you lost me-eee...!

(During Saxophone Solo)Repeat Main Riff x2 then:

Riff 4
[G------------------------------------------------
D------------------------------------------------
A2-------------------2-2-2-2-----------------444!
E----------2-0-2-0-2---------0-0-0-0-2-0-2-0-----]

Riff 5
[G---------------------------------
D------------------------222222---
A2-2-2222--------55555555------72
E--------00000000-----------------]
I opened up my eyes, and soon I realized

Riff 6
[G---------------------------------------
D---------------------------------------
A2-2-2-2-4-4-4-4-55---5---5--44--44-----
E-------------------5---5--5---------92]

Riff 7 } x3
[G-------------------------------------------
D-----------2-2-----------2-2-----------2-22
A-------5-55----------5-55----------5-55----
E2-22-22-------2-22-22-------2-22-22--------]
 "LIES!"..........

[G----------------
D------------2-22
A2-224-445-55----
E----------------]
 
 

Видео