Save Ferris - Under 21, аккорды

Прокрутка
Тональность
Шрифт
100
(bass)

Intro:		
G------------------------------------------
D------------------------------------------
A-----5-3---------5-3-------0-2------------
E---3-----------3----------3---------------

Verse:		
G------------------------------------------
D----2-5-----------------2-0---------------
A--3--------2-5-----0-3--------------------
E---------3-------1------------------------

Other Verse Part:
G------------------------------------------
D------------------------------------------
A--------5-5--3-3-3--5-4-------------------
E--3-3-------------------------------------

Chorus:		
G------------------------------------------
D------------------------------------------
A-----3>----5>-----------------------------
E------------------------------------------

Bridge:		
G------------------------------------------
D------------------------------------------
A--3-3-------------------------------------
E------3-3--1-1-1-1------------------------

Guitar Solo:	
G------------------------------------------
D------------------------------------------
A--3-3-------------------------------------
E-------3-3---1-1-1-1----------------------

Coming out of solo:
G------------------------------------------
D------------------------------------------
A----1>-1-2-3------------------------------
E--1>--------------------------------------

Ending:		
G------------------------------------------
D------------------------------------------
A----5-3-------5-3>-2-0--------------------
E--3--------3--------------3---------------
 
 

Видео