Save Ferris - The World Is New, аккорды

Прокрутка
Тональность
Шрифт
100
SAVE FERRIS
THE WORLD IS NEW


THIS IS MOST OF IT!
I DO NOT KNOW IT ALL




-----------------------------------------------------------------
-----------------------------------------------------------------
1-------1-------1-1----------------------------------------------
-------------------------333333---444444-------------------------



-----------------------------------------------------------------
----------1-----------1-----------1----3---------------------1---
1-2-3------1-2-3------1-2-3-----------3---0----1-2-3-----333333---444444------
-----------------------------------------------------------------


-----------------------------------------------------------------
1-1-1-1---3-3-3-3--3-1-------------------------------------------
-------------------------------3-2-0-----------------------------
----------------------------------------------------------------


SOLO!

-----------------------------------------------------------------
3--1-----------------------1--3----------------------------------
-------3--2--1--0--2--3------------------------------------------
-----------------------------------------------------------------



I THINK IT IS RIGHT?
TABED BY: CHRIS
NSherw5893@aol.com