Saves The Day - At Your Funeral, аккорды

Прокрутка
Тональность
Шрифт
100
e|----------------------------------------------------------
B|--10h12p10------------------------------------------------
G|-----------11-9----9h11-----------------------------------
D|----------------12-------12-------------------------------
A|----------------------------------------------------------
E|----------------------------------------------------------

This is repeated 8 times I think, but I'm not sure.

Then the outro is:

e|----------------------------------------------------------
B|----------------------------------------------------------
G|--11-11p9--12p11p9----------------------------------------
D|----------------------------------------------------------
A|----------------------------------------------------------
E|----------------------------------------------------------
 
 

Видео