Saves The Day - At Your Funeral, аккорды

Прокрутка
Тональность
Шрифт
100
standard tuning

   this song will become
e-------------------------------------------
B-------------------------------------------
G-7---------------6-------4-----4-----------
D---------------------------0---------------
A-------------------------------------------
E-------------------------------------------


e-------------------------------------------
B-------------------------------------------
G-7-----------------------------------------
D-7-------7------5-------7------------------
A-5-------7------5-------7------------------
E-0-------5------3-------5------------------

  Thats basicly the whole song theres a little different pattern at one point but if you listen to it you'll figure it out
 
 

Видео