Saves The Day - At Your Funeral, аккорды

Прокрутка
Тональность
Шрифт
100
       this song          will become...                   your underground
e---2---8-------------------------18----------------------------------
B----------12------------------------------100------------------------
G--------10-----3---------------------------------------8/910-0------
D-------------------4------2--------9--------------------------12-6-4-
A-----------------------0------1----------1------4-6--9---------------
E----------------------------------------------3----------------------

           and t your Funeral....    I will sing...     The....
e--16--------------------10---3--------1-----7--------------------3--8
B--14------14----14------10--------------------------------82---------
G--14------14----14------10-----4----2----0----3----------------7-----
D--14--------------------12-----------------7-------------------------
A------------------------12--------6-------82-2-2-2--------------9----
E------------------------10-------------------------------------------

e-----BEE--DEEK-------------------------------------------------------
B---------------------------------------------------------------------
G------------------BEE--DEEK------------------------------------------
D---------------------------------------BEE--fat--DEEK----------------
A-------------------------------------------------------------2--1---0
E---------------------------------------------------------------------

This is my first Tab I think It is right. if not then e-mail me At
I_Really_dont_Give_A_DAMN@BeeDeek.com  and thanks for letting me
waist your time!
 
 

Видео