Saves The Day - Freakish, аккорды

Прокрутка
Тональность
Шрифт
100
Saves The Day - Freakish
Tabbed By: joe rigart
EMail: thg787@gte.net
album: stay what you are


*Listen to song for timing*


Verse

g:-----------------------
d:-----------------------
a:----6----7-------------
e:-------------7----9----

Pre-Chorus

g:--------------------------------------------------
d:--------------------------------------------------
a:----6666----7777----6666----66----7----99----7----
e:--------------------------------------------------

g:----------------------------------------
d:----------------------------------------
a:----6666----7777----9999----77----66----
e:----------------------------------------

Chorus

g:--------------------------------
d:--------------------------------
a:---------------66----77----9----
e:----77----99--------------------

Outro

g:----------------
d:----------------
a:----7777----9999
e:----------------Verse 4x 
Pre-Chorus 1x
Chorus 4x
Verse 4x
Pre-Chorus 1x
Chorus 4x
Outro 4x
Chorus 4x

END...