Saves The Day - Rocks Tonic Juice Magic, аккорды

Прокрутка
Тональность
Шрифт
100
Artist:Saves The Day
Song:Rocks Tonic Juice Magic
Album:Through Being Cool
Tabbed By: Dean К. (projectwyze13@hotmail.com)

Verse(X4)(...Let me take this awkward saw...)
G|-------------------------------------------------------------------|
D|-------------------------------------------------------------------|
A|-----------5>--------------7>--------------------------------------|
E|---2>--------------5>----------------------------------------------|

Bridge(X2)(...If I could only make you mine...)
G|-------------------------------------------------------------------|
D|-------------------------------------------------------------------|
A|--------5-4-2-0--------5-4-2-0-------------------------------------|
E|---2>-------------5>-----------------------------------------------|

Chorus(X1)(...Heart is on the floor...)
G|-------------------------------------------------------------------|
D|-------------------------------------------------------------------|
A|-----5>--------7>--------5>--------7>---------5>--------7>----5>---|
E|222--------5>--------2>--------5>--------222--------5>-----2>----0-|

Outro(X4)(...You and I...)(1x)                Ending
G|------------------------------------------|------------------------|
D|------------------------------------------|------------------------|
A|---------------------55555555-------------|-----2--4--5------------|
E|-55555555--44444444------------22220000---|--2---------------------|