Scars On Broadway - Exploding/Reloading, аккорды

Прокрутка
Тональность
Шрифт
100
Am x3
Am/Eb
3:---------------5--------------------|
4:---7----7--5--7--7--5--7--5--7--- --|
5:-------------------------------~7---|
6:-5-------------------------- -------|  x2

Am                                              Eb
I like, I like suicide mixed with Jesus Christ, yeah
I like, I like Jesus Christ mixed with suicide, yeah
I am, I am genocide mixed with Turkish lies, yeah
I like, I like Jesus Christ mixed with suicide, yeah

G#m Am  C#5 
       Exploding...
G#m Am  C#5 
       Reloading...
G#m Am  C#5 
       Exploding...

Am x3
Am/Eb
3:---------------5--------------------|
4:---7----7--5--7--7--5--7--5--7--- --|
5:-------------------------------~7---|
6:-5-------------------------- -------|  x2

Am                                                      Eb
You live, you live on your knees, spread like a disease yeah
You live, you live on your knees, spread like a disease yeah
I like, I like suicide mixed with Jesus Christ, yeah
I like, I like Jesus Christ mixed with suicide, yeah

G#m Am  C#5 
       Exploding...
G#m B5  C#5 
       Reloading...
G#m Am  C#5 
       Exploding...

A5,G#m,Am,C#5 
3:---------------5--------------------|
4:---7----7--5--7--7--5--7--5--7--- --|
5:-------------------------------~7---|
6:-5-------------------------- -------|  

G#m Am  C#5 
       Exploding...
G#m B5  C#5 
       Reloading...
G#m Am  C#5 
       Exploding...
Am
Well I like, I like genocide mixed with suicide
            Eb
mixed with suicide
Am
I like, I like Jesus Christ mixed with suicide
           Eb
mixed with genocide
 
 
Свернуть Распечатать

Видео