Scars On Broadway - World Long Gone, аккорды

Прокрутка
Тональность
Шрифт
100
3:----6--------------------------------------------
4:-6-----6--7--4--6-----4-----------------4--------
5:-------------------7-----6--7--4--6--7-----7--6-- x4

C#5
Sometimes! I said sometimes!
     B5
I go crazy! Like I'm crazy!
         C#5
It takes patience! Lots of patience!
          B5
Then it's over, fucking over!
C#5           B5
I look at the sky, faded,
C#5        B5
I read the stars

A5            C#5
Maybe I don't know,
                    B5
How many people are starving,
        A5     G#5
In this world long gone.

3:----6--------------------------------------------
4:-6-----6--7--4--6-----4-----------------4--------
5:-------------------7-----6--7--4--6--7-----7--6-- x4

C#5
Sometimes! I said sometimes!
     B5
I go crazy! Like I'm crazy!
         C#5
It takes patience! Lots of patience!
          B5
Then it's over, fucking over!
C#5           B5
I look at the sky, faded,
C#5        B5
I read the stars


A5            C#5
Maybe I don't know,
                    B5
How many people are starving,
A5            C#5
Maybe I don't know,
                    B5
How many people are starving,
        A5     G#5
In this world long gone.

3:----6--------------------------------------------
4:-6-----6--7--4--6-----4-----------------4--------
5:-------------------7-----6--7--4--6--7-----7--6-- x2

2:-----------------------------------------------------4-5-4-----
3:------------------------------------------4---4-6-4-6-----6-4--
4:----------------4----4-6-4-6-7-4-6-7-4-6-7-6-7-----------------
5:-4-3-4-6-7-4-6-7--6-7---7--------------------------------------

C#5           B5
I look at the sky(the sky), faded,(faded)
C#5        B5
I read(I read) the stars(stars)

A5            C#5
Maybe I don't know,
                    B5
How many people are starving,
A5            C#5
Maybe I don't know,
                    B5
How many people are starving,
        A5     G#5
In this world long gone.

3:----6--------------------------------------------
4:-6-----6--7--4--6-----4-----------------4--------
5:-------------------7-----6--7--4--6--7-----7--6-- x2

2:-----------------------------------------------------4-5-4-----
3:------------------------------------------4---4-6-4-6-----6-4--
4:----------------4----4-6-4-6-7-4-6-7-4-6-7-6-7-----------------
5:-4-3-4-6-7-4-6-7--6-7---7--------------------------------------
 
 
Свернуть Распечатать

Видео