School Of Rock - School Of Rock, аккорды

Прокрутка
Тональность
Шрифт
100
Tabber: Connor G.

e-----------------------|
B-/7-12-10-7-5-3-2-3-5-3|
G-----------------------|
D-----------------------|
A-----------------------|
E-----------------------|
e-----------------------|
B-/777-7-5-3-5-3--------|
G-----------------------|
D-----------------------|
A-----------------------|
E-----------------------|

e---------------10-13^--12-10-10--14(14)--10-12-109/10--7h5-/14-12-10 (10)|
B-12^10--10-12------------------------------------------------------------|
G--------------------------------------------------------------------------|
D--------------------------------------------------------------------------|
A--------------------------------------------------------------------------|
E--------------------------------------------------------------------------|

   only a kick ass guitar player, can write a kick ass tab.