School Of Rock - School Of Rock, аккорды

Прокрутка
Тональность
Шрифт
100
Tabbed by:Prock213
Email:Prock213@yahoo.com

Tuning:standard

Intro Riff: goes on through whole song
Guitar 2
e|--------------------------------------------------------------------------
B|--7-7-7-8-7-8-10-8-7-8-8-8-8-7-7-7-7--------------------------------------
G|--7-7-7-7-7-7-7-7-7-7-7-7-7-7-7-7-7-7-------------------------------------
D|--------------------------------------------------------------------------
A|--------------------------------------------------------------------------
E|--------------------------------------------------------------------------

Intro: Guitar 1
e|---2----2----2-2-2----2-2-2-----------------------------------------------
B|---3----3----3-3-3----3-3-3-----------------------------------------------
G|---2----2----2-2-2----2-2-2-----------------------------------------------
D|---0----0----0-0-0----0-0-0-----------------------------------------------
A|---x----x----x-x-x----x-x-x-----------------------------------------------
E|---x----x----x-x-x----x-x-x-----------------------------------------------

Verse: 10-15 times(listen to the song to be exact)
Guitar 1
e|---2----0----0----0-------------------------------------------------------
B|---3----3----3----3-------------------------------------------------------
G|---2----0----0----0-------------------------------------------------------
D|---0----x----x----x-------------------------------------------------------
A|---x----3----2----3-------------------------------------------------------
E|---x----x----x----x-------------------------------------------------------

Chorus: (d-u-d-u-du)
Guitar 1
Chords:G-D-D-E-G