Запрещают песни Цоя, Агата Кристи, Наутилус Помпилиус, Зиверт
Отвечаем в отдельной теме

Секрет - Моя любовь на пятом этаже, аккорды

Прокрутка
Тональность
Шрифт
100
[Вступление]: C
  F            Gm              Am        Dm
Снова дом, все тот же дом, как я ему он мне знаком,
Gm          A        Dm
Он меня считает чудаком -
  Dm     F          A#                 A#m
Пришел опять сюда стоять всю ночь, не спать и ждать,
 F            Gm             Am       Dm
Под покровом темноты смотрю наверх, туда где ты -
 Gm           A        Dm
Выше нет на свете высоты,
  Dm   F           A#          A#m
Дворы пусты свели мосты и лишь коты со мной на "ты"
    F           Dm
e -8-8-8-5--------
b ---------8-6----
g --------------7-

               Gm       Am              Dm 
Моя любовь на пятом этаже, почти где луна,
e -------3-1--
b -----1------
g -2-2--------
             Gm          A#m               C
Моя любовь конечно спит уже - спокойного сна,
e -6-6-5------
b -------6-8--
  F    Dm      A#       C  
Моя любовь на пятом этаже...
   F        C
e -6-5--------
b -----6-8----

 F          Gm         Am               Dm
Дом окутан тишиной, и только дождь над головой,
   Gm         A            Dm
Спросит, не пора ли мне домой,
   Dm         A#m    C
e -------5-----------5-----5--
b ---6-8---6-8---6-8---6-8----
g -7-----------6--------------
  F             Gm               Am           Dm
Мне плевать на дождь и тьму, но мне понять бы самому,
  Gm         A        Dm
Для чего я здесь и почему
    Dm    F           A#          A#m
Дворы пусты свели мосты и лишь коты со мной на "ты"....
    F           Dm
e -8-8-8-5--------
b ---------8-6----
g --------------7-

               Gm       Am              Dm 
Моя любовь на пятом этаже, почти где луна,
e -------3-1--
b -----1------
g -2-2--------
             Gm          A#m               C 
Моя любовь конечно спит уже - спокойного сна,
e -6-6-5------
b -------6-8--
  F    Dm      A#       C   
Моя любовь на пятом этаже...

 F           Gm            Am           Dm
На часах четвертый час, фонарь луны давно погас,
   Gm       A        Dm
С якоря сниматься в самый раз,
   Dm         A#m    C
e -------5-----------5-----5--
b ---6-8---6-8---6-8---6-8----
g -7-----------6--------------
  F           Gm              Am         Dm
Снова мне не хватит дня, но скоро город весь в огнях,
  Gm            A            Dm
И эта полночь вновь спасет меня -
  Dm    F           A#                A#m
Приду опять сюда стоять всю ночь, не спать, молчать и ждать...
    F           Dm
e -8-8-8-5--------
b ---------8-6----
g --------------7-

               Gm       Am              Dm 
Моя любовь на пятом этаже, почти где луна,
e -------3-1--
b -----1------
g -2-2--------
             Gm          A#m               C 
Моя любовь конечно спит уже - спокойного сна,
e -6-6-5------
b -------6-8--
  F    Dm      A#       C   
Моя любовь на пятом этаже...


Пианинное соло:
    F              Gm          Am                 Dm          Gm           A#m               F              Dm   C
e ---------------------------------------------15-13---12-10---------------------------------------------------
b -13--13-13--13-13---13-13-13-13----10-13---------------------10-10-11------10-10-11--------------------------
g ----------------------------------------------------------------------------------------------------14-12-10-
d -----------------------------------------------------------------------12-------------11---11-11-10----------


Гитарное соло:
 Dm            C            F              Gm
    e ----------------------------------------10----
    b ----------------10-11-13-13-13-10-11-13----13-
    g -------9-10-12--------------------------------
    d -10-12----------------------------------------
    Am                D7             Gm         A#m                     F        Dm
    e ----------10----11-10-----------------------------10-12-13-15-15-17-17-17-
    b -10-11-13----13-------13-10-10-10-11-8-8-10-11-13-------------------------
    g --------------------------------------------------------------------------
    d --------------------------------------------------------------------------

               Gm       Am              Dm 
Моя любовь на пятом этаже, почти где луна,
e -------3-1--
b -----1------
g -2-2--------
             Gm          A#m               C 
Моя любовь конечно спит уже - спокойного сна,
A#  C

  F    Dm      A#       C   
Моя любовь на пятом этаже...
  F    Dm      A#       C   
Моя любовь на пятом этаже...
  F    Dm      A#m
Моя любовь на пятом
    F
Этаже... 
 
 
Свернуть Распечатать

Аппликатуры аккордов

Аккорд CАккорд FАккорд GmАккорд AmАккорд DmАккорд AАккорд A#Аккорд A#mАккорд D7
помощники
7,904 25 14.07.2022

Видео