Сектор Газа - Свадьба, аккорды

Прокрутка
Тональность
Шрифт
100
Вступление:
     Am   
E|------------------------|-------------------|------|------|
B|------------------------|-------------------|------|------|
G|------------------------|-------------------|------|------|
D|------------------------|-------------------|------|------|
A|-0--3--5-6-5--3--5--3---|-0--3------5--5--3-|------|------|
E|------------------------|--------3*---------|------|------|


E|------------------------|-------------------|------|------|
B|------------------------|-------------------|------|------|
G|------------------------|-------------------|------|------|
D|------------------------|-------------------|------|------|
A|-0--3--5-6-5--3--5--3---|-0--3--5--------3--|------|------|
E|------------------------|----------3-3------|------|------|


E|------------------------|-------------------|------|------|
B|------------------------|-------------------|------|------|
G|------------------------|-------------------|------|------|
D|------------------------|-------------------|------|------|
A|-0--3--5-6-5--3--5--3---|-0--3------5--5--3-|------|------|
E|------------------------|--------3*---------|------|------|

E|------------------------|-------------------|------|------|
B|------------------------|-------------------|------|------|
G|------------------------|-------------------|------|------|
D|------------------------|-------------------|------|------|
A|-0--3--5-6-5--3--5--3---|-0--3------5--5--3-|------|------|
E|------------------------|--------3*---------|------|------|

Am                                                       
В деревне по соседству бахали свадьбу, 
Am        
Приглашены мы были на свадьбу в усадьбу, 
Am        
Приоделись мы, (Хор: Мы!) 
Am        
Принарядились все. (Хор: Все!) 

Am        
И ломанулись дружно туда, где было 
Am        
Очень классно (Хор: Классно!) 
Am        
И все прекрасно. (Хор: Классно!) 
Am        
И мы вместе понимали, что нажремся там ужасно 
Am        
Все, вперед, бухало нас зовет! 
Am        
И мы зальем водярой безразмерный живот, вот! 

D                    F             
Свадьба! Смотрите, ведут! 
G                            C           
Сегодня на кого-то надели хомут.
D                       F 
Свадьба! Под хлопанье рук 
G                                      Аb
Сегодня кто-то добровольно влез под каблук.
D                       F
Свадьба! Сегодня все пьют, 
G                            C
Сегодня все гуляют и песни поют.
D                           F 
Свадьба! Здесь нельзя не напиться! 
G                                   Аb
Свадьба! – "Вам хорошо, а мне жениться!" 

D C Am                                                            
В общем! Нас, как угорелых понесли на свадьбу ноги, 
D C Am     
Топот лошадиный по проселочной дороге, 
D C Am     
Мы всех гусей перетоптали, не пришли пока, 
D C Am     
Кто нам перебегал дорогу - дали дубака. 

D C Am     
Да-да-да-дорвались потом до пойла, короче: 
D C Am     
Хлебали мы водяру до глубокой ночи-чи-чи-… 
D C Am     
Чинно-благородно мы схватили колья и ломы, 
D C Am     
Так сорвало нашу крышу, от водяры, пацаны! 

Комментарий автора:

* этот значок означает, что нота должна звучать 2-3 секунды
 
 
Свернуть Распечатать

Видео