Сектор Газа - Утопленник, аккорды

Прокрутка
Тональность
Шрифт
100
Intro:
                   F                Dm               Am             
e:----12--10------|----------------|----12--10------|12--15-12-------|
b:------------13--|10------10------|------------13--|----------------|
g:----------------|----------------|----------------|----------------|

F                Dm               Am    
e:----12--10------|----------------|----12--10------|17-20-17--------| 
b:------------13--|10------10------|------------13--|----------------|  
g:----------------|----------------|----------------|----------------|          

                Am
Всё так тихо, темно под водою.
               Em 
Только тина кругом да песок.
        Am         
Я на ил наступаю ногою
       Em
И пою этот медленный рок.
                 G               Dm
Рвется грудь от тоски и от муки - 
         Am
Я зубами грызу камыши.
         F                Dm
О ракушки порезал я руки,
             E
Но кругом ни души.

         F          Dm        Am
О-о-о-о, о-о, я - утопленник!
         F          Dm        Am
О-о-о-о, о-о, я - утопленник!

Только рыбы немые со мною
Тихо плавают в бездне морской.
Только раки внизу норы роют,
Помашу я им синей рукой.
Где б найти мне подругу морскую,
Чтобы с нею купаться в ночи.
А то я затоскую -
Скучно здесь, хоть воем кричи!

О-о-о-о, о-о, я - утопленник!
О-о-о-о, о-о, я - утопленник!

Пусть я пухлый и пахну немного,
И пусть синего цвета лицо.
Я как прежде любить могу многих,
Хоть являюсь сейчас мертвецом.
Я нарву на болоте кувшинки,
И русалке я их подарю.
И пускай она мечет икринки,
Я ее покорю.
         F               Dm                    Am                               F  Dm   Am
О-о-о-о,      о-о, я - утопленник!                    О-о-о-о, о-о, я - утопленник
e:----------------|--------------------|----12--10------|15--------------|
b:----------------|--------------------|------------13--|----------------|
g:----------------|--------------------|----------------|----------------|
d:----------------|--------------------|----------------|----14--12------|
a:----------------|--------------------|----------------|------------15--|
e:----------------|--------------------|----------------|----------------|
                                               
А когда луна речку осветит,
Я с русалкой прилягу на дно.
Я прижмуся к зелёному телу,
От неё мне лишь надо одно.
Я всю ночь проведу с ней на иле.
А на утро, как солнце взойдет,
Подарю я ей лилий,
Пусть она к черту с богом, плывёт.

О-о-о-о, о-о, я - утопленник!
О-о-о-о, о-о, я - утопленник
 
 
Свернуть Распечатать

Видео