Сектор Газа - Щи, аккорды

Прокрутка
Тональность
Шрифт
100
5|-0----0----0----0----3----3----3----3----0--
Мама, я корову подоил, 
5|-0----0----0----0----3----3----3----3----0--
На лугу я сено накосил, 
5|-0----0----0----0----3----3----3----3----0--
Мама, я дровишки нарубил, 
4|-5----5----5----5----3----3----2----0-------
5|-----------------------------3--------------
Борова в сарае накормил. 

5|-0----0----0----0----3----3----3----3----0--
А теперь под вечер я устал, 
5|-0----0----0----0----3----3----3----3----0--
Целый день я круто попахал, 
5|-0----0----0----0----3----3----3----3----0--
Трескать очень сильно я хочу, 
4|-5----5----5----5----3----3----2----0-------
5|-----------------------------3--------------
Что любую гадость проглочу. 

Dm     Dm * Dm Am    Am * E   E *  Am Am ** Am
Возьми мясо и хрящи, навари крутые щи, 
Dm     Dm * Dm Am    Am * E   E *  Am Am ** Am
Ты чугун прополощи и вари в чугуне щи, 
Dm     Dm * Dm Am    Am * E   E *  Am Am ** Am
Кидай больше овощей - не могу я жить без щей, 
Dm     Dm * Dm Am    Am * E   E *  Am Am ** Am
Чтоб я толстый был ваще, навари мне русских щей! 

5|-0----0----0----0----3----3----3----3----0--
Знаешь мать, с тобой мне хорошо, 
5|-0----0----0----0----3----3----3----3----0--
но решил жениться я еще, 
5|-0----0----0----0----3----3----3----3----0--
Ты мне мать невесту подыщи, 
4|-5----5----5----5----3----3----2----0-------
5|-----------------------------3--------------
чтоб она варить умела щи, 

5|-0----0----0----0----3----3----3----3----0--
Я без щей и дня не проживу, 
5|-0----0----0----0----3----3----3----3----0--
в жены даже дуру я возьму, 
5|-0----0----0----0----3----3----3----3----0--
Пусть она кривая и в прыщах, 
4|-5----5----5----5----3----3----2----0-------
5|-----------------------------3--------------
лишь бы разбиралась она в щах. 

Dm     Dm * Dm Am    Am * E   E *  Am Am ** Am
Возьми мясо и хрящи, навари крутые щи, 
Dm     Dm * Dm Am    Am * E   E *  Am Am ** Am
Ты чугун прополощи и вари в чугуне щи, 
Dm     Dm * Dm Am    Am * E   E *  Am Am ** Am
Кидай больше овощей - не могу я жить без щей, 
Dm     Dm * Dm Am    Am * E   E *  Am Am ** Am
Чтоб я толстый был ваще, навари мне русских щей! 

5|-0----0----0----0----3----3----3----3----0--
Мать, иди сюда - чего скажу, 
5|-0----0----0----0----3----3----3----3----0--
в армию я мама ухожу, 
5|-0----0----0----0----3----3----3----3----0--
Мне повестка только что пришла, 
4|-5----5----5----5----3----3----2----0-------
5|-----------------------------3--------------
ну вот опять ты плакать начала, 

5|-0----0----0----0----3----3----3----3----0--
Хорошо служить я буду мать, 
5|-0----0----0----0----3----3----3----3----0--
буду все приказы выполнять, 
5|-0----0----0----0----3----3----3----3----0--
Ну, а если не дадут мне щей, 
4|-5----5----5----5----3----3----2----0-------
5|-----------------------------3--------------
убягу из армии ваще. 

Dm     Dm * Dm Am    Am * E   E *  Am Am ** Am
Возьми мясо и хрящи, навари крутые щи, 
Dm     Dm * Dm Am    Am * E   E *  Am Am ** Am
Ты чугун прополощи и вари в чугуне щи, 
Dm     Dm * Dm Am    Am * E   E *  Am Am ** Am
Кидай больше овощей - не могу я жить без щей, 
Dm     Dm * Dm Am    Am * E   E *  Am Am ** Am
Чтоб я толстый был ваще, навари мне русских щей!

Комментарий автора:

Куплеты играются под такой бас:
5|-0----0----0----0----3----3----3----3----0--
   Ма   ма,  я    ко   ро   ву   по   до   ил, 

5|-0----0----0----0----3----3----3----3----0--
   На   лу   гу   я    се   но   на   ко   сил,

4|-0----0----0----0----3----3----3----3----0--
   Ма   ма,  я    дро  виш  ки   на   ру   бил, 

4|-5----5----5----5----3----3----2----0-------
5|-----------------------------3--------------
   Бо   ро   ва   в са ра   е    на   кор  мил. 

Припев рекомендую играть так:
Dm     Dm * Dm Am    Am * E   E *  Am Am ** Am
Возьми мясо и хрящи, навари крутые щи,

Аккорды берутся на 5-м (Am и Dm) и на 7-м (E) ладах!!!
Dm* - как Dm, но мизинцем зажимается 1-я струна на 7-м ладу
Am* - как Am, но мизинцем зажимается 1-я струна на 8-м ладу
Am** - как Am, но мизинцем зажимается 1-я струна на 7-м ладу
E* - как E, но барре слегка смещается, чтобы 1-я струна оказалась зажатой на 8-м ладу
 
 
Свернуть Распечатать

Видео