Сектор Газа - Мертвый в доме, аккорды

Прокрутка
Тональность
Шрифт
100
Fill 1:         
E|------------------------------
B|------------------------------
G|--7-7-7-7-7-7-7-7-10-10-10-12-
D|--7-7-7-7-7-7-7-7-10-10-10-12-
A|--5-5-5-5-5-5-5-5-8--8--8--10-
E|------------------------------

Глухой поселок среди леса, мать его ети, 
Здесь от покойников конкретно можно огрести, 
Они творят бесчинства и шныряют по ночам, 

Fill 2:
E|-------------------------------------
B|-------------------------------------
G|--14-14-14-14-14-14-14-14-10-10-10-7-
D|--14-14-14-14-14-14-14-14-10-10-10-7-
A|--12-12-12-12-12-12-12-12-8--8--8--5-
E|-------------------------------------

И даже в доме этой ночью нет покоя нам. 

Fill 1:         
E|------------------------------
B|------------------------------
G|--7-7-7-7-7-7-7-7-10-10-10-12-
D|--7-7-7-7-7-7-7-7-10-10-10-12-
A|--5-5-5-5-5-5-5-5-8--8--8--10-
E|------------------------------

А за окном горит луна и светит на погост, 
В испуге кошка наша черная поджала хвост, 
И слышен за окном ужасный и загробный вой,- 

Fill 2:
E|-------------------------------------
B|-------------------------------------
G|--14-14-14-14-14-14-14-14-10-10-10-7-
D|--14-14-14-14-14-14-14-14-10-10-10-7-
A|--12-12-12-12-12-12-12-12-8--8--8--5-
E|-------------------------------------

Наверно, трупы под землею потеряли покой. 

Fill 1:         
E|------------------------------
B|------------------------------
G|--7-7-7-7-7-7-7-7-10-10-10-12-
D|--7-7-7-7-7-7-7-7-10-10-10-12-
A|--5-5-5-5-5-5-5-5-8--8--8--10-
E|------------------------------
       
Мертвый в доме – закрой зеркала, 
Мертвый в доме – ждет из-за угла, 
Мертвый в доме – е-мое, 

Fill 2:
E|-------------------------------------
B|-------------------------------------
G|--14-14-14-14-14-14-14-14-10-10-10-7-
D|--14-14-14-14-14-14-14-14-10-10-10-7-
A|--12-12-12-12-12-12-12-12-8--8--8--5-
E|-------------------------------------

Он жаждет вашей крови – он получит ее. 

Fill 1:         
E|------------------------------
B|------------------------------
G|--7-7-7-7-7-7-7-7-10-10-10-12-
D|--7-7-7-7-7-7-7-7-10-10-10-12-
A|--5-5-5-5-5-5-5-5-8--8--8--10-
E|------------------------------
         
Твоя прабабка этой страшной ночью умерла, 
Была при жизни ведьмой очень-очень злой она, 
Теперь она в гробу и на столе, 

Fill 2:
E|-------------------------------------
B|-------------------------------------
G|--14-14-14-14-14-14-14-14-10-10-10-7-
D|--14-14-14-14-14-14-14-14-10-10-10-7-
A|--12-12-12-12-12-12-12-12-8--8--8--5-
E|-------------------------------------

А дух ее уже давно летает на метле.
 
Fill 1:         
E|------------------------------
B|------------------------------
G|--7-7-7-7-7-7-7-7-10-10-10-12-
D|--7-7-7-7-7-7-7-7-10-10-10-12-
A|--5-5-5-5-5-5-5-5-8--8--8--10-
E|------------------------------
      
Мы задремали - бабушка тотчас 
Вперила очи мертвые на нас, 
Из мертвой пасти ее вылезли большие клыки, 

Fill 2:
E|-------------------------------------
B|-------------------------------------
G|--14-14-14-14-14-14-14-14-10-10-10-7-
D|--14-14-14-14-14-14-14-14-10-10-10-7-
A|--12-12-12-12-12-12-12-12-8--8--8--5-
E|-------------------------------------

Не трогай, бабушка, нас, мы ж - твои правнуки! 

Fill 1:         
E|------------------------------
B|------------------------------
G|--7-7-7-7-7-7-7-7-10-10-10-12-
D|--7-7-7-7-7-7-7-7-10-10-10-12-
A|--5-5-5-5-5-5-5-5-8--8--8--10-
E|------------------------------
         
Мертвый в доме – закрой зеркала, 
Мертвый в доме – ждет из-за угла, 
Мертвый в доме – он как-то проник, 

Fill 2:
E|-------------------------------------
B|-------------------------------------
G|--14-14-14-14-14-14-14-14-10-10-10-7-
D|--14-14-14-14-14-14-14-14-10-10-10-7-
A|--12-12-12-12-12-12-12-12-8--8--8--5-
E|-------------------------------------

Он жаждет вашей крови, защищайся, мужик!
 
 

Видео