Сектор Газа - Любовь загробная, аккорды

Прокрутка
Тональность
Шрифт
100
        D                     Am                Em
E|---5--5--5--5--3--2---|-5--5--5--5--3--5-|--7*--------|
B|----------------------|------------------|------------|
G|----------------------|------------------|------------|
D|----------------------|------------------|------------|
A|----------------------|------------------|------------|
E|----------------------|------------------|------------|

       D                  Am                 Em
E|-5--5--5--5--3--2-|-5--5--5--5--3--2-|-3*--2--3--2--0*-|
B|------------------|------------------|-----------------|
G|------------------|------------------|-----------------|
D|------------------|------------------|-----------------|
A|------------------|------------------|-----------------|
E|------------------|------------------|-----------------|

       D                     Am                Em
E|---5--5--5--5--3--2---|-5--5--5--5--3--5-|--7*--------|
B|----------------------|------------------|------------|
G|----------------------|------------------|------------|
D|----------------------|------------------|------------|
A|----------------------|------------------|------------|
E|----------------------|------------------|------------|

       G                 B7            Em     
E|-3--3--3--3--3--3-|-2--2--2--2--2--0-------|------|------|
B|------------------|------------------------|------|------|
G|------------------|------------------------|------|------|
D|------------------|------------------------|------|------|
A|------------------|------------------------|------|------|
E|------------------|------------------------|------|------|

Em                                                        
Опять с нетерпением жду я конец октября, 
                             Am                                                        
Конец октября с нетерпением жду я не зря - 
Em
Опять с тридцать первого ночью ко мне ты придешь, 
                              Am
Смешается снова смертельно-любовная дрожь, 
G                B7       Em
Ты придешь, из могилы придешь. 

D                       Am            Em
Тела наши снова сольются под светом луны, 
D                        Am            Em
Любовь наша вечна, друг другу мы сильно нужны,
D                          Am        Em
Твой череп оскаленный вновь улыбается мне, 
G                            B7       Em       
Я буду ласкать тебя нежно при полной луне. 
 
 

Видео