Сектор Газа - Мент, аккорды

Прокрутка
Тональность
Шрифт
100
Intro:   
E||-------------3------------------|
B||-5555555-3-0----5555555-3-0-----|
G||----------------------------2-0-|
D||--------------------------------| x2
A||--------------------------------|
E||--------------------------------|

      Em                        Am 
Я не токарь, я не пекарь, я не повар, не доцент, 
       Em                           B7
Я не дворник, я не слесарь - я простой советский мент.  
      Em                        Am 
Я работаю в шараге под названием трезвяк, 
       Em                           B7
Вы пашите на заводах, ну а мне и здесь ништяк! 

Am                  G        D            Em 
Эй, кто за дверью! Выходи в сортир по одному! 

Проигрыш:   
E||-------------3------------------|
B||-5555555-3-0----5555555-3-0-----|
G||----------------------------2-0-|
D||--------------------------------| x2
A||--------------------------------|
E||--------------------------------|

      Em                        Am 
Если ты клиент с деньгами не прошел мой день за так, 
       Em                           B7
Все карманы наизнанку, всех обчищу только так. 
      Em                        Am 
Ведь одной зарплаты мало, посудите чуваки! 
       Em                           B7
У меня ж есть тоже шлюхи, мне нужны ведь пятаки! 

Am                  G        D            Em 
Эй, кто за дверью! Выходи в сортир по одному! 

Проигрыш:   
E||-------------3------------------|
B||-5555555-3-0----5555555-3-0-----|
G||----------------------------2-0-|
D||--------------------------------| x2
A||--------------------------------|
E||--------------------------------|

  { x2               Em           }       Am           Em   
E||--------------0----------3----0-|--3--5----0--0--0----3--5----0--0--0-|
B||-0--1----3--4---------------3---|--3--5---------------3--5------------|
G||--------------------------------|-------------------------------------|
D||---------------------2----------|-------------------------------------|
A||---------------------2----------|----------0-----0------------2-----2-|
E||--------------0----------0------|-------------0------------------0----|

E||-------------3------------------|
B||-5555555-3-0----5555555-3-0-----|
G||----------------------------2-0-|
D||--------------------------------| x2
A||--------------------------------|
E||--------------------------------|

      Em                        Am 
Обслужу всех в лучшем виде, всех раздену уложу, 
       Em                           B7
Пусть работа грязновата, зато с плугом не хожу. 
      Em                        Am 
Ведь у нас в родной деревне хоть спаши ты сто земель, 
       Em                           B7
Не получишь, сколько за день я кладу себе в шинель. 

Am                  G        D            Em 
Эй, кто за дверью! Выходи в сортир по одному! 

Outro:
E||-------------3------------------|
B||-5555555-3-0----5555555-3-0-----|
G||----------------------------2-0-|
D||--------------------------------| x2
A||--------------------------------|
E||--------------------------------|

Комментарий автора:

Подбор Intro / Проигрыши и автор комментария к подбору - пользователь AxeW.

 - Удар с заглушкой по струнам
Вместо зажатой 2 струны на 5 ладу можно играть открытую первую.
Бой:щипком бас+123(с ударом) или четверка с глушением.
 
 
Свернуть Распечатать

Видео