Сектор Газа - Звёздная болезнь, аккорды

Прокрутка
Тональность
Шрифт
100
Вступление: A5 A5 D5 D5 

A5               D5 A5         D5
Я стал знаменитым, я вам не чета,
A5          D5 A5     D5
Я супермен, я поп-звезда,
     G5                  D5
Я по улице иду, не замечая никого,
A5
О-о-о-о-о.

Припев:
    D5
 Я держу кверху нос, я вас всех перерос,
      F5
 Я великий, я герой -
      G5                    A5
 Овладела мной звездная болезнь

Соло:
1|---------------------------------------------------------------------------
2|---------------------------------------------------------------------------
3|---------------------------------------------------------------------------
4|----10--10--9-7---10-10-10-9-7---10-10-9--7---10--10-10-9-7--7--5--5--3--2-
5|-7-7-----------7---------------7-----------7-------------------------------
6|---------------------------------------------------------------------------

1|------------------------------------------------------------------------------
2|------------------------------------------------------------------------------
3|------------------------------------------------------------------------------
4|---10--10--9-7---10-10-10-9-7------10-10-9--7---10--10-10-9-7--7--5-5-7-10-7--
5|-7-7----------7--------------7-7-7------------7-------------------------------
6|------------------------------------------------------------------------------

1|--------5-5-5-5-5-5--5-5---8|5---8|5---8|5--10-10-10-10------17-
2|-5-5-5-8---8---8---8--8-----------------------------------16|---
3|----------------------------------------------------------------
4|----------------------------------------------------------------
5|----------------------------------------------------------------
6|----------------------------------------------------------------

Комментарий автора:

| - натяжка струн.

Так вот, эта песня тоже лабается на пауэр аккордах.

Автор:The_Rocker_ZG
По вопросам пишите в ящик rocker4493@mail.ru если, что помогу
 
 
Свернуть Распечатать

Видео