Сергей Никитин - Я спросил у ясеня (вступление), аккорды

Прокрутка
Тональность
Шрифт
100
----------------0--------------------------3-------------3----------------1-------------------------------5-
----------1-----------1--------------2------------2--------------3----------------3-------------------3-----
-------2----2-----2-----2--------0----0-----0---------------2------2--------2--------2----------4------4----
 ---------------------------------------------------------0-------------------------------------------------
 -0---------------------------0-----------------------------------------------------------------------------
--------------------------------------------------------------------------------------------------3---------

------------------5-----------------3-------------------8-----------------7--------5---------7----------
-------3------------------5------------------5-------------------6------------------------------------5-
---4-------4---------5-------5---------5--------5----------7-------7--------7--------7---------5------5-
---------------------------------------------------------0----------------------------------------------
------------------------------------------------------------------------------------------------0-------
-----------------3--------------------------------------------------------------------------------------


---3-----------------------------5-------------3-----------1------------0-------------------0------------
------------5-----------------------------------------------------------------------0-----------------3--
--------3------3----------2-------------2-----------2------------2-----------1-------1---------1-------1-
----------------------3------------------3-----------3------------3--------------------------------------
---------------------------------------------------------------------------------------------------------
---3----------------------------------------------------------------------0------------------------------

-----------------------0----------------------------------------0-------------
--------------1-----------------1--------------------1-------------------1----
---------2--------2--------2--------2----------2---------2--------2---------2-
------------------------------------------------------------------------------
---0---------------------------------------0----------------------------------
------------------------------------------------------------------------------ Я спросил у ясеня…
 
 

Видео