Serj Tankian - Sky Is Over, аккорды

Прокрутка
Тональность
Шрифт
100
Tabbed by: Lee Hamlet
 
Tuning: Drop D

 Intro:
E|---------------------------------------------------------------------------|
B|---------------------------------------------------------------------------|
G|---------------------------------------------------------------------------|
D|-----13131313131210------(x2)------18181818181715---------13131313131210---|
A|--------------------10----------------------------15--------------------10-|
E|10-----------------------------15----------------------10------------------|


E|---------------------------------------------------------------------------|
B|---------------------------------------------------------------------------|
G|---------------------------------------------------------------------------|
D|-----13131313131210----------18181818181715------------13-------12---------|
A|-------------------10-----------------------15------------------------(x3)-|
E|10-----------------------15-------------------------13-------12------------|

 Pre-Chorus:
E|---------------------------------------------------------------------------|
B|---------------------------------------------------------------------------|
G|---------------------------------------------------------------------------|
D|----12-----------------13----------------12--------------------------------|
A|--8----8---(x2)-----10----10--(x2)-----8----8--(x2)--11110000--------------|
E|8----------------10------------------8---------------11110000--------------|

 Chorus:
E|---------------------------------------------------------------------------|
B|---------------------------------------------------------------------------|
G|---------------------------------------------------------------------------|
D|-5555555----------5--------5-----------------------------------------------|
A|-5555555--OR----5---5----5---5------------------------------------11110000-|(x4)
D|-5555555------5--------5-------5-(layered-2nd-guitar,-not-exact)--11110000-|

 2nd Verse:
E|---------------------------------------------------------------------------|
B|---------------------------------------------------------------------------|
G|------------------------------10-1010101010--------------------------------|
D|-13-1313131313--13-1313131313-10-1010101010--13-1313-12-1212---------------|
A|-10-1010101010--10-1010101010-8--8-8-8-8-8---13-1313-12-1212-----(x2)------|
E|-10-1010101010--10-1010101010----------------13-1313-12-1212---------------|


 Pre-Chorus:
E|---------------------------------------------------------------------------|
B|---------------------------------------------------------------------------|
G|---------------------------------------------------------------------------|
D|----12-----------------13----------------12--------------------------------|
A|--8----8---(x2)-----10----10--(x2)-----8----8--(x2)--11110000--------------|
E|8----------------10------------------8---------------11110000--------------|

 Bridge (just how I play it):
E|---------------------------------------------------------------------------|
B|-----------(Piano-part)----------------------------------------------------|
G|---------------------------------------------------------------------------|
D|10--10131210129--------15--151817151714---------10--10131210129------------|
A|10---------------(x4)--15----------------(x2)---10----------------(x2)-----|
E|10---------------------15-----------------------10-------------------------|

E|---------------------------------------------------------------------------|
B|---------------------------------------------------------------------------|
G|---------------------------------------------------------------------------|
D|10---------------------15-----------------------10-------------------------|
A|10-10131210129---(x4)--15-151817151714---(x2)---10-10131210129---(x2)------|
E|10-10131210129---------15-151817151714----------10-10131210129-------------|

E|---------------------------------------------------------------------------|
B|---------------------------------------------------------------------------|
G|---------------------------------------------------------------------------|
D|8-8-8-8-10----------------------8-8-8-8-10-10-10-10------8-8-8-8-----------|
A|8-8-8-8-10-10131210129---(x2)---8-8-8-8-10-10-10-10------8-8-8-8-11110000--|
E|8-8-8-8-10-10131210129----------8-8-8-8-10-10-10-10-8h10-8-8-8-8-11110000--|

E|---------------------------------------------------------------------------|
B|---------------------------------------------------------------------------|
G|------12----------12-------------------------------------------------------|
D|---10----10----10----------------------------------------------------------|
A|10----------10----------11110000-------------------------------------------|
E|---------------------1211110000-------------------------------------------|

Repeat Chorus 7 times and end the song with this:

E|---------------------------------------------------------------------------|
B|---------------------------------------------------------------------------|
G|--------------8-8888-7-----------------------------------------------------|
D|1-1111-0-0000-8-8888-7--(let-ring)-----------------------------------------|
A|1-1111-0-0000-6-6666-5-----------------------------------------------------|
E|1-1111-0-0000--------0---------------5-------------------------------------|
 
 

Видео