Serj Tankian - Sounds Of War, аккорды

Прокрутка
Тональность
Шрифт
100
Tabbed by: Gerbos

Tuning: Standard


Main riff:
e|---------------------------------------------------------------------------|
B|---------------------------------------------------------------------------|
G|---------------------------------------------------------------------------|
D|--4------------------------------------------------------------------------|
A|----3----3p1-4p1-----------------------------------------------------------|
E|1----------------4p3-------------------------------------------------------|

Chorus:
e|---------------------------------------------------------------------------|
B|---------------------------------------------------------------------------|
G|10----6--------8----5--------6----3--------5----3----5----6----5----3------|
D|10----6--------8----5--------6----3--------5----3----5----6----5----3------|
A|10----4--------6----3--------4----1--------3----1----3----4----3----1------|
E|---------------------------------------------------------------------------|

Комментарий автора:

| / slide up
|  slide down
| h hammer-on
| p pull-off
| ~ vibrato
| + harmonic
| x Mute note
 
 

Видео