Serj Tankian - Feed Us, аккорды

Прокрутка
Тональность
Шрифт
100
Tabbed by: Chris Dorgan
Tuning: Full Step Down DGCFAD
 
Intro: Distorted
d|---------------------------------------------------------------------|
A|---------------------------------------------------------------------|
F|---------------------------------------------------------------------|
C|---------------------------------------------------------------------| x2
G|-4-4-4-4-4-4-7-7-3-3-3-3-3-3-6-6-4-4-4-4-4-4-7-7-9-9-9-9-12-12-12-12-| 
D|-2-2-2-2-2-2-5-5-1-1-1-1-1-1-4-4-2-2-2-2-2-2-5-5-7-7-7-7-10-10-10-10-|

Verse:
Guitar 1 - Clean
d|-----------------------|
A|-----------------------|
F|-----------------------|
C|--74-63----74-3-6---| X4
G|-----------------------|
D|-----------------------|

Guitar 2 - Clean
d|---------------------------------------------------------------------------|
A|---------------------------------------------------------------------------|
F|---------------------------------------------------------------------------|
C|---7---7---7---7---7---6---6---6---6---6---7---7---7---7---7---------------|
G|-9---9---9---9---9---8---8---8---8---8---9---9---9---9---9-----------------|
D|---------------------------------------------------------------------------|

d|--------------------------------------------|
A|--------------------------------------------|
F|--------------------------------------------|
C|----9----9----9----12----12----12-----------| X4
G|-11---11---11---14----14----14--------------|
D|--------------------------------------------|

Guitar 3 - Clean
You lead us When you need to feed us.....
d|-----------------------------------|
A|-----------------------------------|
F|--6---6---6---6---4---4---4---4----|
C|----4---4---4---4---2---2---2---2--|
G|-----------------------------------|
D|-----------------------------------|

Chorus - Distorted
You cheat us when you feed us....
d|------------------------------------------------------------------------|
A|------------------------------------------------------------------------|
F|------------------------------------------------------------------------|
C|------------------------------------------------------------------------|X2
G|-4-4-4-4-4-4-4-4-7-7-7-7-7-7-7-7-9-9-9-9-9-9-9-9-12-12-12-12-12-12-12-12|
D|-2-2-2-2-2-2-2-2-5-5-5-5-5-5-5-5-7-7-7-7-7-7-7-7-10-10-10-10-10-10-10-10|

Guitar 1 - Clean
d|-----------------------|
A|-----------------------|
F|-----------------------|
C|--74-63----74-3-6---| X3
G|-----------------------|
D|-----------------------|

Guitar 2 - Clean
d|---------------------------------------------------------------------------|
A|---------------------------------------------------------------------------|
F|---------------------------------------------------------------------------|
C|---7---7---7---7---7---6---6---6---6---6---7---7---7---7---7---------------|
G|-9---9---9---9---9---8---8---8---8---8---9---9---9---9---9-----------------|
D|---------------------------------------------------------------------------|

d|--------------------------------------------|
A|--------------------------------------------|
F|--------------------------------------------|
C|----9----9----9----12----12----12-----------| X3
G|-11---11---11---14----14----14--------------|
D|--------------------------------------------|

Chorus - Distorted
You cheat us when you feed us....
d|------------------------------------------------------------------------|
A|------------------------------------------------------------------------|
F|------------------------------------------------------------------------|
C|-4-4-4-4-4-4-4-4-7-7-7-7-7-7-7-7-9-9-9-9-9-9-9-9-12-12-12-12-12-12-12-12|X2
G|-4-4-4-4-4-4-4-4-7-7-7-7-7-7-7-7-9-9-9-9-9-9-9-9-12-12-12-12-12-12-12-12|
D|-2-2-2-2-2-2-2-2-5-5-5-5-5-5-5-5-7-7-7-7-7-7-7-7-10-10-10-10-10-10-10-10|

Solo , Kinda

Clean - Guitar 1
d|---------------------------------------------------------------------------|
A|---10--10-11-10------------------------------------------------------------|
F|-7--------------9----10-10-12-14-12-10-12-9---9-9-10-9---------------------|
C|---------------------------------------------------------------------------|
G|---------------------------------------------------------------------------|
D|---------------------------------------------------------------------------|

d|-------------------------------|  d|----------|
A|----10-------------------------|  A|---- 10---|
F|--7-------9--10-10-12-10-10-9--|  F|--7-------|
C|-------------------------------|X4 C|----------|
G|-------------------------------|  G|----------|
D|-------------------------------|  D|----------|

Distorted - Guitar 2
We had our chance to save the garden...
d|---------------------------------------------------------------------------|
A|-15--15-17-----------------------------------------------------------------|
F|------------14-14-15-12-14-9-10-10-12-10-9-10-9---9-9-10-9-----------------|
C|---------------------------------------------------------------------------|
G|---------------------------------------------------------------------------|
D|---------------------------------------------------------------------------|

d|---------------------------------------------------------------------------|
A|--15---17-18-17-15-17-14-15----22-20-18-17-18------------------------------|
F|---------------------------------------------------------------------------|
C|---------------------------------------------------------------------------|
G|---------------------------------------------------------------------------|
D|---------------------------------------------------------------------------|

d|---------------------------------------------------------------------|
A|---------------------------------------------------------------------|
F|---------------------------------------------------------------------|
C|---------------------------------------------------------------------| x2
G|-4-4-4-4-4-4-7-7-3-3-3-3-3-3-6-6-4-4-4-4-4-4-7-7-9-9-9-9-12-12-12-12-| 
D|-2-2-2-2-2-2-5-5-1-1-1-1-1-1-4-4-2-2-2-2-2-2-5-5-7-7-7-7-10-10-10-10-

Chorus
You cheat us when you feed us....
d|------------------------------------------------------------------------|
A|------------------------------------------------------------------------|
F|------------------------------------------------------------------------|
C|-4-4-4-4-4-4-4-4-7-7-7-7-7-7-7-7-9-9-9-9-9-9-9-9-12-12-12-12-12-12-12-12| X4
G|-4-4-4-4-4-4-4-4-7-7-7-7-7-7-7-7-9-9-9-9-9-9-9-9-12-12-12-12-12-12-12-12|
D|-2-2-2-2-2-2-2-2-5-5-5-5-5-5-5-5-7-7-7-7-7-7-7-7-10-10-10-10-10-10-10-10|

This Fades in
d|----------------------------------------------------------------------|
A|----------------------------------------------------------------------|
F|----------------------------------------------------------------------| 
C|-----7----7---7-----6-----6---6-----7-----7---7-------9---------12----|
G|-9-9--9-9---9---8-8---8-8---8---9-9---9-9---9---11-11--11-14-14----14-|X2
D|----------------------------------------------------------------------|

Комментарий автора:

| / slide up
|  slide down 
| h hammer-on
| p pull-off
| ~ vibrato
| + harmonic
| x Mute note
 
 

Видео