Serj Tankian - Unthinking Majority, аккорды

Прокрутка
Тональность
Шрифт
100
Distortion Throughout

There are really only 3 sections to this piece:

A Section:
0:00
e------------------------------------------------------------|
B------------------------------------------------------------|
G--4--4--4----4--4--4----4--4--4----4--4--2--2---------------|
D--4--4--4----4--4--4----4--4--4----4--4--2--2----5--5--5----|
A--2--2--2----2--2--2----2--2--2----2--2--0--0----5--5--5----|
E-------------------------------------------------3--3--3----|

e------------------------------------------------------------|
B------------------------------------------------------------|
G------------------------------------------------------------|
D--5--5--5--5----2--2--2--2----5--5--5--5--------------------|
A--5--5--5--5----2--2--2--2----5--5--5--5--------------------|
E--3--3--3--3----0--0--0--0----3--3--3--3--------------------|
                      x4
(1st time sloppy and faded with feedback)

B Section
0:47
e------------------------------------------------------------------------|
B------9--8--------------------------------------------------------------|
G------------10--8--7--8--------7--8--10--8--7--8------7--8--10--8--7--9-|
D--10-----------------------10---------------------10--------------------|
A------------------------------------------------------------------------|
E------------------------------------------------------------------------|

e------------------------------------------------------------|
B------------------------------------------------------------|
G--12--13--10--12--10--12--9--10-----------------------------|
D------------------------------------------------------------|
A------------------------------------------------------------|
E------------------------------------------------------------|

A Section
0:55
e------------------------------------------------------------|
B------------------------------------------------------------|
G--4--4--4----4--4--4----4--4--4----4--4--2--2---------------|
D--4--4--4----4--4--4----4--4--4----4--4--2--2----5--5--5----|
A--2--2--2----2--2--2----2--2--2----2--2--0--0----5--5--5----|
E-------------------------------------------------3--3--3----|

e------------------------------------------------------------|
B------------------------------------------------------------|
G------------------------------------------------------------|
D--5--5--5--5----2--2--2--2----5--5--5--5--------------------|
A--5--5--5--5----2--2--2--2----5--5--5--5--------------------|
E--3--3--3--3----0--0--0--0----3--3--3--3--------------------|
x2

B Section
1:19
e------------------------------------------------------------------------|
B------9--8--------------------------------------------------------------|
G------------10--8--7--8--------7--8--10--8--7--8------7--8--10--8--7--9-|
D--10-----------------------10---------------------10--------------------|
A------------------------------------------------------------------------|
E------------------------------------------------------------------------|

e------------------------------------------------------------|
B------------------------------------------------------------|
G--12--13--10--12--10--12--9--10-----------------------------|
D------------------------------------------------------------|
A------------------------------------------------------------|
E------------------------------------------------------------|

A Section
1:27
e------------------------------------------------------------|
B------------------------------------------------------------|
G--4--4--4----4--4--4----4--4--4----4--4--2--2---------------|
D--4--4--4----4--4--4----4--4--4----4--4--2--2----5--5--5----|
A--2--2--2----2--2--2----2--2--2----2--2--0--0----5--5--5----|
E-------------------------------------------------3--3--3----|

e------------------------------------------------------------|
B------------------------------------------------------------|
G------------------------------------------------------------|
D--5--5--5--5----2--2--2--2----5--5--5--5--------------------|
A--5--5--5--5----2--2--2--2----5--5--5--5--------------------|
E--3--3--3--3----0--0--0--0----3--3--3--3--------------------|
x4

C Section
1:59
(Not positive on this part, but it's very close)
(Fast)
e------------------------------------------------------------|
B------------------------------------------------------------|
G------------------------------------------------------------|
D--------3p2--------------------3p2--------------------------|
A--2--2-------2--1--2--2--2--2-------2-----------------------|
E------------------------------------------------------------|
x12

B Section
2:31
e------------------------------------------------------------------------|
B------9--8--------------------------------------------------------------|
G------------10--8--7--8--------7--8--10--8--7--8------7--8--10--8--7--9-|
D--10-----------------------10---------------------10--------------------|
A------------------------------------------------------------------------|
E------------------------------------------------------------------------|

e------------------------------------------------------------|
B------------------------------------------------------------|
G--12--13--10--12--10--12--9--10-----------------------------|
D------------------------------------------------------------|
A------------------------------------------------------------|
E------------------------------------------------------------|
x3

C Section
2:55
e------------------------------------------------------------|
B------------------------------------------------------------|
G------------------------------------------------------------|
D--------3p2--------------------3p2--------------------------|
A--2--2-------2--1--2--2--2--2-------2-----------------------|
E------------------------------------------------------------|
x4

A Section
3:04
e------------------------------------------------------------|
B------------------------------------------------------------|
G--4--4--4----4--4--4----4--4--4----4--4--2--2---------------|
D--4--4--4----4--4--4----4--4--4----4--4--2--2----5--5--5----|
A--2--2--2----2--2--2----2--2--2----2--2--0--0----5--5--5----|
E-------------------------------------------------3--3--3----|

e------------------------------------------------------------|
B------------------------------------------------------------|
G------------------------------------------------------------|
D--5--5--5--5----2--2--2--2----5--5--5--5--------------------|
A--5--5--5--5----2--2--2--2----5--5--5--5--------------------|
E--3--3--3--3----0--0--0--0----3--3--3--3--------------------|
x4

C Section
3:35
e------------------------------------------------------------|
B------------------------------------------------------------|
G------------------------------------------------------------|
D--------3p2--------------------3p2--------------------------|
A--2--2-------2--1--2--2--2--2-------2-----------------------|
E------------------------------------------------------------|
x4

Outro
3:45
e--19-------------------------------------|
B-----------------------------------------|
G-----------------------------------------|
D-----------------------------------------|
A-----------------------------------------|
E-----------------------------------------|
  Let Ring...
 
 

Видео