Serj Tankian - Figure It Out, аккорды

Прокрутка
Тональность
Шрифт
100
Tabbed by: Friedemann R.
Tuning: Standard

Main Riff:
pm the open strings on E
e|---------------------------------------------------------------------------|
B|---------------------------------------------------------------------------|
G|---------------------------------------------------------------------------|
D|-------3p2-----------3p2----------3p2-------------7------------------------|
A|--------------------------------------------------5------------------------|
E|--0--0-----0-0--0-0------0-0--0-0------0-0--0-0----------------------------|

e|---------------------------------------------------------------------------|
B|---------------------------------------------------------------------------|
G|---------------------------------------------------------------------------|
D|---------3p2-----------3p2----------3p2----------5--6----------------------|
A|-------------------------------------------------5--6----------------------|
E|----0--0-----0-0--0-0------0-0--0-0------0-0-----3--4----------------------|

Not sure about this one.
e|---------------------------------------------------------------------------|
B|---------------------------------------------------------------------------|
G|---------------------------------------------------------------------------|
D|---------------------------------------------------------------------------| repeat
A|---------------------------------------------------------------------------|
E|-0-0-0-0-0-0-0-0-5-0-0-0-3-0-0-0-------------------------------------------|

Bridge:
Bass into guitar:
e|---------------------------------------------------------------------------|
B|---------------------------------------------------------------------------|
G|---------------------------------------------------------------------------|
D|-------------------------3-------------------------------------------------| repeat
A|--3h5-5---3h5-5---5-3h5-----5p3--------3h5-5---3h5-5---5-3h5---3-----------|
E|---------------------------------5-----------------------------------------|
 
 

Видео