Serj Tankian - Lie Lie Lie, аккорды

Прокрутка
Тональность
Шрифт
100
E|------------------------------------------------------| 
B|------------------------------------------------------|
G|------------------------------------------------------|
D|---------------3-------3-------3-------3--------------|
A|-------------3---3---3---3---3---3---3---3------------| _
D|-3----3----3-------3-------3-------3------------------|  |
                                                           | 2x
E|------------------------------------------------------| _|
B|------------------------------------------------------|
G|------------------------------------------------------|
D|--------1-------1-------8------8----------------------|
A|------1---1---1---1---8--8---8---8--------------------|
D|----1-------1-------8------8--------------------------|
                                       
E|------------------------------------------------------|   
B|------------------------------------------------------| _ 
G|------------------------------------------------------|  | 
D|-3-3-3-3--1-1-1-1--8-8-8-8--10-10-10-10---------------|  | 4x 
A|-3-3-3-3--1-1-1-1--8-8-8-8--10-10-10-10---------------| _| 
D|-3-3-3-3--1-1-1-1--8-8-8-8--10-10-10-10---------------|  

E|---------------------------------------------------------|
B|---------------------------------------------------------|
G|---------------------------------------------------------|
D|-----3------1------8------10-------3------1----8-8--8----|
A|---3--3---1---1--8--8---10--10---3---3--1---1--8-8--8----|
D|-3------1------8------10-------3------1--------8-8?-8----|2x

E|------------------------------------------|
B|------------------------------------------|
G|------------------------------------------|
D|-6--6--6--6--6-10--10--10--10-------------|       
A|-4--4--4?-4--4-10--10--10--10-------------|        
D|-0--0--0--0--0-10--10--10--10-------------|         

E|------------------------------------------------------|   
B|------------------------------------------------------| _ 
G|------------------------------------------------------|  | 
D|-3-3-3-3--8-8-8-8--6-6-6-6--10-10-10-10---------------|  | 3x 
A|-3-3-3-3--8-8-8-8--4-4-4-4--10-10-10-10---------------| _| 
D|-3-3-3-3--8-8-8-8--0-0-0-0--10-10-10-10---------------|  

E|---------------------------------------------------------|
B|---------------------------------------------------------|
G|---------------------------------------------------------|
D|-----3------1------8------10-------3------1----8-8--8----|
A|---3--3---1---1--8--8---10--10---3---3--1---1--8-8--8----|
D|-3------1------8------10-------3------1--------8-8?-8----|2x

E|------------------------------------------|
B|------------------------------------------|
G|------------------------------------------|
D|-6--6--6--6--6-10--10--10--10-------------|       
A|-4--4--4?-4--4-10--10--10--10-------------|        
D|-0--0--0--0--0-10--10--10--10-------------|         

E|------------------------------------------------------|   
B|------------------------------------------------------| _ 
G|------------------------------------------------------|  | 
D|-3-3-3-3--8-8-8-8--6-6-6-6--10-10-10-10---------------|  | 3x 
A|-3-3-3-3--8-8-8-8--4-4-4-4--10-10-10-10---------------| _| 
D|-3-3-3-3--8-8-8-8--0-0-0-0--10-10-10-10---------------|  

E|-------------------------------|
B|-------------------------------|
G|-------------------------------|
D|-----3------1------8------10---| 4x
A|---3--3---1---1--8--8---10--10-|
D|-3------1------8------10-------|

E|------------------------------------------------------|   
B|------------------------------------------------------| _ 
G|------------------------------------------------------|  | 
D|-3-3-3-3--1-1-1-1--8-8-8-8--10-10-10-10---------------|  | 8x 
A|-3-3-3-3--1-1-1-1--8-8-8-8--10-10-10-10---------------| _| 
D|-3-3-3-3--1-1-1-1--8-8-8-8--10-10-10-10---------------|  

E|------------------------------------------|
B|------------------------------------------|
G|------------------------------------------|
D|-6--6--6--6--6-10--10--10--10-------------|       
A|-4--4--4?-4--4-10--10--10--10-------------|        
D|-0--0--0--0--0-10--10--10--10-------------|         

E|------------------------------------------------------|   
B|------------------------------------------------------| _ 
G|------------------------------------------------------|  | 
D|-3-3-3-3--8-8-8-8--6-6-6-6--10-10-10-10---------------|  | 2x 
A|-3-3-3-3--8-8-8-8--4-4-4-4--10-10-10-10---------------| _| 
D|-3-3-3-3--8-8-8-8--0-0-0-0--10-10-10-10---------------|  

E|-------------------------------|
B|-------------------------------|
G|-------------------------------|
D|-----3------1------8------10---| 8x
A|---3--3---1---1--8--8---10--10-|
D|-3------1------8------10-------|
 
 

Видео