Serj Tankian - Lie Lie Lie, аккорды

Прокрутка
Тональность
Шрифт
100
Intro:
D|------------------------------------------------------| 
A|------------------------------------------------------|
F|------------------------------------------------------|
C|---------------5-------5-------5-------5--------------|
G|-------------5---5---5---5---5---5---5---5------------| _
C|-5----5----5-------5-------5-------5------------------|  |
                                                           | 2x
D|------------------------------------------------------| _|
A|------------------------------------------------------|
F|------------------------------------------------------|
C|--------3-------3-------10------10--------------------|
G|------3---3---3---3---10--10--10--10------------------|
C|----3-------3-------10------10------------------------|
                                       
D|------------------------------------------------------|   
A|------------------------------------------------------| _ 
F|------------------------------------------------------|  | 
C|-5-5-5-5--3-3-3-3--10-10-10-10--0-0-0-0---------------|  | 3x 
G|-5-5-5-5--3-3-3-3--10-10-10-10--0-0-0-0---------------| _| 
C|-5-5-5-5--3-3-3-3--10-10-10-10--0-0-0-0---------------|  

D|-------------------------------------------------------|
A|-------------------------------------------------------|
F|-------------------------------------------------------|
C|-5-5-5-5--3-3-3-3--10-10-10-10-10-10-10-10--0-0-0-0--7-|
G|-5-5-5-5--3-3-3-3--10-10-10-10-10-10-10-10--0-0-0-0----|
C|-5-5-5-5--3-3-3-3--10-10-10-10-10-10-10-10--0-0-0-0----|

D|---------------------------------------------------------|
A|---------------------------------------------------------|
F|---------------------------------------------------------|
G|-----5------3------10------0-------5------3---10-10--10--|
G|---5--5---3---3--10--10--0---0---5---5--3---3-10-10--10--|
C|-5------3------10------0-------5------3-------10-10--10--|2x

D|------------------------------------------|
A|------------------------------------------|
F|------------------------------------------|
C|-1--1--1--1--1-0--0--0--0-----------------|       
G|-1--1--1--1--1-0--0--0--0-----------------|        
C|-1--1--1--1--1-0--0--0--0-----------------|         
                                    
D|------------------------------------------|       
A|------------------------------------------|       
F|------------------------------------------|
C|-5-5-5-5-5-5-5-5--10-10-10-10-10-10-10-10-|
G|-5-5-5-5-5-5-5-5--10-10-10-10-10-10-10-10-|
C|-5-5-5-5-5-5-5-5--10-10-10-10-10-10-10-10-|

D|------------------------------------------|
A|------------------------------------------|
F|------------------------------------------|
C|-1--1--1--1--1-0--0--0--0-----------------|       
G|-1--1--1--1--1-0--0--0--0-----------------|         
C|-1--1--1--1--1-0--0--0--0-----------------|
 
 

Видео