Serj Tankian - Empty Walls, аккорды

Прокрутка
Тональность
Шрифт
100
Tuning: Eadgbe

Intro
E |-------------------|
B |-------------------|
G |-------------------|x8
D |-------------------|
A |--3-3-5-6----------|
E |-------------------|

E |-------------------|
B |-------------------|
G |-------------------|x4
D |-------------------|
A |--8-8-10-11--------|
E |-------------------|

E |-------------------|
B |-------------------|
G |-------------------|x2
D |-------------------|
A |--6-6-8-9----------|
E |-------------------|

E |-------------------|
B |-------------------|
G |-------------------|x2
D |-------------------|
A |--5-5-7-8----------|
E |-------------------|

Chorus
( Those Empty Walls, Those Empty waaalls)
E |---------------------------------|
B |---------------------------------|
G |---------------------------------|x6
D |-------5------------------7------|
A |--5-6------8-6------5-6----------|
E |---------------------------------|

 Refrain
( Can't you see those bodies burning, desolate, 
and full of yearning)
E |----------------------------------------------------|
B |----------------------------------------------------|
G |----------------------------------------------------|
D |--1010101010101010--88888888--33333333--11111111----|x2
A |--1010101010101010--88888888--33333333--11111111----|
E |--1010101010101010--88888888--33333333--11111111----|

( I want You To Be Left Behind Those Empty Walls)
E |----------------------------------------------------|
B |----------------------------------------------------|
G |----------------------------------------------------|x2
D |--1010101010101010--88888888--55555555--33333333----|
A |--1010101010101010--88888888--55555555--33333333----|
E |--1010101010101010--88888888--55555555--33333333----|

   Interlude
E |------------------------------|
B |------------------------------|
G |------------------------------|x4
D |--------5-------------7-------|
A |--5-6------8-6----5-6---------|
E |------------------------------|

     Refrain
E |----------------------------------------------------|
B |----------------------------------------------------|
G |----------------------------------------------------|x2
D |--1010101010101010--88888888--33333333--11111111----|
A |--1010101010101010--88888888--33333333--11111111----|
E |--1010101010101010--88888888--33333333--11111111----|

E |----------------------------------------------------|
B |----------------------------------------------------|
G |----------------------------------------------------|x2
D |--1010101010101010--88888888--55555555--33333333----|
A |--1010101010101010--88888888--55555555--33333333----|
E |--1010101010101010--88888888--55555555--33333333----|

                   X2

Intro again,   it's just a little different
E |-----------------------------|
B |-----------------------------|
G |-----------------------------|x4
D |-----------------------------|
A |----3-3-5-6------------------|
E |-----------------------------|

E |-----------------------------|
B |-----------------------------|
G |-----------------------------|x2
D |-----------------------------|
A |----8-8-10-11----------------|
E |-----------------------------|

E |-----------------------------|
B |-----------------------------|
G |-----------------------------|x2
D |-----------------------------|
A |----6-6-8-9------------------|
E |-----------------------------|

E |-----------------------------|
B |-----------------------------|
G |-----------------------------|x2
D |-----------------------------|
A |----5-5-7-8------------------|
E |-----------------------------|
 
 

Видео