Serj Tankian - Falling Stars, аккорды

Прокрутка
Тональность
Шрифт
100
Tuning:

e|--------------------------------------------------------------------------|
B|----------------------------------------------------10------10-----10-----|
G|-------7------------7------------7------7-------7-------7------7------7---|
D|----7-----------7------------7--------7------7------------7------7------7-|
A|--5----------5----------5---------5--------5------------------------------|
E|--------------------------------------------------------------------------|

e|--------------------------------------------------------------------------|
B|--------------------------------------------------------------------------|
G|---------------------------------------------------3-3-3-3-3-3------------|
D|-3-3-3-3-3-3-3-3-3-3----------2-2-2-2-2-2-2--------3-3-3-3-3-3------------|
A|-3-3-3-3-3-3-3-3-3-3----------2-2-2-2-2-2-2--------1-1-1-1-1-1------------|
E|-1-1-1-1-1-1-1-1-1-1-----3-1--0-0-0-0-0-0-0-------------------------------|
 
 

Видео