Serj Tankian - Honking Antelope, аккорды

Прокрутка
Тональность
Шрифт
100
Tuning: drop C

intro - no guitar
verse - no guitar

chorus 1 x2
d|-------------------------------------------------------------------------|
a|-------------------------------------------------------------------------|
f|-------------------------------------------------------------------------|
C|-8-8-8-8-8-8-8-8-5-5-5-5-3-3-3-3-0-0-0-0-1----0-0-0-0--------------------|
G|-8-8-8-8-8-8-8-8-5-5-5-5-3-3-3-3-0-0-0-0-1-3-0-0-0-0--------------------|
C|-8-8-8-8-8-8-8-8-5-5-5-5-3-3-3-3-0-0-0-0-1----0-0-0-0--------------------|

verse (quiet)
d|-------------------------------------------------------------------------|
a|-------------------------------------------------------------------------|
f|--------------------3~---------------------3~---------------------3~-----|
C|-0-0-0-0-1~-0-0-0-0-3~-0-0-0-0-1~--0-0-0-0-3~-0-0-0-0-1~--0-0-0-0-3~-----|
G|-0-0-0-0-1~-0-0-0-0-1~-0-0-0-0-1~--0-0-0-0-1~-0-0-0-0-1~--0-0-0-0-1~-----|
C|-0-0-0-0-1~-0-0-0-0----0-0-0-0-1~--0-0-0-0----0-0-0-0-1~--0-0-0-0--------|
 . . . . . . . . . . . . . . . . . . . . . . . . . . . . . . . . . .

chorus 2
d|-------------------------------------------------------------------------|
a|-------------------------------------------------------------------------|
f|-------------------------------------------------------------------------|
C|-8-8-8-8-8-8-8-8-5-5-5-5-3-3-3-3-0-0-0-0-1----12-12-10-10-8-8-7-7--------|
G|-8-8-8-8-8-8-8-8-5-5-5-5-3-3-3-3-0-0-0-0-1-3-12-12-10-10-8-8-7-7--------|
C|-8-8-8-8-8-8-8-8-5-5-5-5-3-3-3-3-0-0-0-0-1----12-12-10-10-8-8-7-7--------|

chorus 1 (dont't Do the last part, just Do the 8's, 
5's and 3's and start the bridge)

bridge
d|-------------------------------------------------------------------------|
a|-------------------------------------------------------------------------|
f|-------------------------------------------------------------------------|
c|-0-0--0--0-0-0-0-0--0--0-0-0-2-2--2--2-2-2-2-2--2--2-2-2-----------------|
G|-0-0--0--0-0-0-0-0--0--0-0-0-2-2--2--2-2-2-2-2--2--2-2-2-----------------|
C|-0-0--0--0-0-0-0-0--0--0-0-0-2-2--2--2-2-2-2-2--2--2-2-2-----------------|

d|-------------------------------------------------------------------------|
a|-------------------------------------------------------------------------|
f|-------------------------------------------------------------------------|
C|-5-(x15)-7-(x8)-11-(x8)--------------------------------------------------|
G|-5-(x15)-7-(x8)-11-(x8)--------------------------------------------------|
C|-5-(x15)-7-(x8)-11-(x8)--------------------------------------------------|

chorus 3 x2
d|-------------------------------------------------------------------------|
a|-------------------------------------------------------------------------|
f|-------------------------------------------------------------------------|
C|-3-3-3-3-3-3-3-3-2-2-2-2-5-5-5-5-0-0-0-0-1----12-12-10-10-8-8-7-7--------|
G|-3-3-3-3-3-3-3-3-2-2-2-2-5-5-5-5-0-0-0-0-1-3-12-12-10-10-8-8-7-7--------|
C|-3-3-3-3-3-3-3-3-2-2-2-2-5-5-5-5-0-0-0-0-1----12-12-10-10-8-8-7-7--------|

verse
chorus 2 x2
(at the end of the 2nd time, Do the chorus 1, dont't Do the last part, just Do the 8's, 
and 3's and start the bridge)

bridge

chorus 4 x3
d|-------------------------------------------------------------------------|
a|-------------------------------------------------------------------------|
f|-------------------------------------------------------------------------|
C|-3-3-3-3-3-3-3-3-2-2-2-2-5-5-5-5-0-0-2-3-0-0-2-3-12-12-10-10-8-8-7-7----|
G|-3-3-3-3-3-3-3-3-2-2-2-2-5-5-5-5-0-0-2-3-0-0-2-3-12-12-10-10-8-8-7-7----|
C|-3-3-3-3-3-3-3-3-2-2-2-2-5-5-5-5-0-0-2-3-0-0-2-3-12-12-10-10-8-8-7-7----|

outro
d|-------------------------------------------------------------------------|
a|-------------------------------------------------------------------------|
f|-------------------------------------------------------------------------|
C|-3-3-3-3-3-3-3-3-2-2-2-2--5--3--2--0~------------------------------------|
G|-3-3-3-3-3-3-3-3-2-2-2-2--5--3--2--0~------------------------------------|
C|-3-3-3-3-3-3-3-3-2-2-2-2--5--3--2--0~------------------------------------|
 
 

Видео